  0
SECTION
  2
HEADER
  9
$ACADVER
  1
AC1014
  9
$ACADMAINTVER
 70
     0
  9
$DWGCODEPAGE
  3
ANSI_1252
  9
$INSBASE
 10
0.0
 20
0.0
 30
0.0
  9
$EXTMIN
 10
-91.644665
 20
64.122404
 30
0.0
  9
$EXTMAX
 10
22.187442
 20
109.683493
 30
0.0
  9
$LIMMIN
 10
0.0
 20
0.0
  9
$LIMMAX
 10
3456.096
 20
2304.096
  9
$ORTHOMODE
 70
     1
  9
$REGENMODE
 70
     0
  9
$FILLMODE
 70
     1
  9
$QTEXTMODE
 70
     0
  9
$MIRRTEXT
 70
     1
  9
$DRAGMODE
 70
     2
  9
$LTSCALE
 40
25.0
  9
$OSMODE
 70
     0
  9
$ATTMODE
 70
     1
  9
$TEXTSIZE
 40
12.0
  9
$TRACEWID
 40
6.0
  9
$TEXTSTYLE
  7
ROMANS
  9
$CLAYER
  8
0
  9
$CELTYPE
  6
BYLAYER
  9
$CECOLOR
 62
   256
  9
$CELTSCALE
 40
1.0
  9
$DELOBJ
 70
     1
  9
$DISPSILH
 70
     0
  9
$DIMSCALE
 40
96.0
  9
$DIMASZ
 40
0.125
  9
$DIMEXO
 40
0.0625
  9
$DIMDLI
 40
0.0
  9
$DIMRND
 40
0.125
  9
$DIMDLE
 40
0.0
  9
$DIMEXE
 40
0.0625
  9
$DIMTP
 40
0.0
  9
$DIMTM
 40
0.0
  9
$DIMTXT
 40
0.125
  9
$DIMCEN
 40
0.09375
  9
$DIMTSZ
 40
0.0
  9
$DIMTOL
 70
     0
  9
$DIMLIM
 70
     0
  9
$DIMTIH
 70
     0
  9
$DIMTOH
 70
     0
  9
$DIMSE1
 70
     0
  9
$DIMSE2
 70
     0
  9
$DIMTAD
 70
     1
  9
$DIMZIN
 70
     3
  9
$DIMBLK
  1

  9
$DIMASO
 70
     0
  9
$DIMSHO
 70
     1
  9
$DIMPOST
  1
 
  9
$DIMAPOST
  1

  9
$DIMALT
 70
     0
  9
$DIMALTD
 70
     2
  9
$DIMALTF
 40
25.4
  9
$DIMLFAC
 40
1.0
  9
$DIMTOFL
 70
     1
  9
$DIMTVP
 40
0.0
  9
$DIMTIX
 70
     1
  9
$DIMSOXD
 70
     0
  9
$DIMSAH
 70
     0
  9
$DIMBLK1
  1

  9
$DIMBLK2
  1

  9
$DIMSTYLE
  2
FACDIM
  9
$DIMCLRD
 70
     3
  9
$DIMCLRE
 70
     3
  9
$DIMCLRT
 70
   256
  9
$DIMTFAC
 40
0.8
  9
$DIMGAP
 40
0.0312
  9
$DIMJUST
 70
     0
  9
$DIMSD1
 70
     0
  9
$DIMSD2
 70
     0
  9
$DIMTOLJ
 70
     1
  9
$DIMTZIN
 70
     0
  9
$DIMALTZ
 70
     0
  9
$DIMALTTZ
 70
     0
  9
$DIMFIT
 70
     3
  9
$DIMUPT
 70
     0
  9
$DIMUNIT
 70
     6
  9
$DIMDEC
 70
     4
  9
$DIMTDEC
 70
     4
  9
$DIMALTU
 70
     2
  9
$DIMALTTD
 70
     2
  9
$DIMTXSTY
  7
ROMANS
  9
$DIMAUNIT
 70
     0
  9
$LUNITS
 70
     4
  9
$LUPREC
 70
     4
  9
$SKETCHINC
 40
0.1
  9
$FILLETRAD
 40
0.0
  9
$AUNITS
 70
     0
  9
$AUPREC
 70
     2
  9
$MENU
  1
.
  9
$ELEVATION
 40
0.0
  9
$PELEVATION
 40
0.0
  9
$THICKNESS
 40
0.0
  9
$LIMCHECK
 70
     0
  9
$BLIPMODE
 70
     0
  9
$CHAMFERA
 40
0.5
  9
$CHAMFERB
 40
0.5
  9
$CHAMFERC
 40
1.0
  9
$CHAMFERD
 40
0.0
  9
$SKPOLY
 70
     1
  9
$TDCREATE
 40
2450984.554779178
  9
$TDUPDATE
 40
2451561.570016273
  9
$TDINDWG
 40
0.4328631597
  9
$TDUSRTIMER
 40
0.4328631597
  9
$USRTIMER
 70
     1
  9
$ANGBASE
 50
0.0
  9
$ANGDIR
 70
     0
  9
$PDMODE
 70
     0
  9
$PDSIZE
 40
0.0
  9
$PLINEWID
 40
0.0
  9
$COORDS
 70
     2
  9
$SPLFRAME
 70
     0
  9
$SPLINETYPE
 70
     6
  9
$SPLINESEGS
 70
     8
  9
$ATTDIA
 70
     1
  9
$ATTREQ
 70
     1
  9
$HANDLING
 70
     1
  9
$HANDSEED
  5
27F5
  9
$SURFTAB1
 70
     6
  9
$SURFTAB2
 70
     6
  9
$SURFTYPE
 70
     6
  9
$SURFU
 70
     6
  9
$SURFV
 70
     6
  9
$UCSNAME
  2

  9
$UCSORG
 10
0.0
 20
0.0
 30
0.0
  9
$UCSXDIR
 10
1.0
 20
0.0
 30
0.0
  9
$UCSYDIR
 10
0.0
 20
1.0
 30
0.0
  9
$PUCSNAME
  2

  9
$PUCSORG
 10
0.0
 20
0.0
 30
0.0
  9
$PUCSXDIR
 10
1.0
 20
0.0
 30
0.0
  9
$PUCSYDIR
 10
0.0
 20
1.0
 30
0.0
  9
$USERI1
 70
     0
  9
$USERI2
 70
     0
  9
$USERI3
 70
     0
  9
$USERI4
 70
     0
  9
$USERI5
 70
     0
  9
$USERR1
 40
96.0
  9
$USERR2
 40
0.0
  9
$USERR3
 40
0.0
  9
$USERR4
 40
0.0
  9
$USERR5
 40
0.0
  9
$WORLDVIEW
 70
     1
  9
$SHADEDGE
 70
     3
  9
$SHADEDIF
 70
    70
  9
$TILEMODE
 70
     1
  9
$MAXACTVP
 70
    48
  9
$PINSBASE
 10
0.0
 20
0.0
 30
0.0
  9
$PLIMCHECK
 70
     0
  9
$PEXTMIN
 10
1.000000E+20
 20
1.000000E+20
 30
1.000000E+20
  9
$PEXTMAX
 10
-1.000000E+20
 20
-1.000000E+20
 30
-1.000000E+20
  9
$PLIMMIN
 10
0.0
 20
0.0
  9
$PLIMMAX
 10
12.0
 20
9.0
  9
$UNITMODE
 70
     0
  9
$VISRETAIN
 70
     1
  9
$PLINEGEN
 70
     1
  9
$PSLTSCALE
 70
     1
  9
$TREEDEPTH
 70
  3020
  9
$PICKSTYLE
 70
     1
  9
$CMLSTYLE
  2
STANDARD
  9
$CMLJUST
 70
     0
  9
$CMLSCALE
 40
1.0
  9
$PROXYGRAPHICS
 70
     1
  9
$MEASUREMENT
 70
     0
  0
ENDSEC
  0
SECTION
  2
CLASSES
  0
CLASS
  1
LWPOLYLINE
  2
AcDbPolyline
  3
"AutoCAD"
 90
        0
280
     0
281
     1
  0
CLASS
  1
DICTIONARYVAR
  2
AcDbDictionaryVar
  3
"AutoCAD"
 90
        0
280
     0
281
     0
  0
CLASS
  1
HATCH
  2
AcDbHatch
  3
"ACAD_SEDONA"
 90
        0
280
     0
281
     1
  0
CLASS
  1
XRECORD
  2
AcDbXrecord
  3
"<Built In>"
 90
        0
280
     0
281
     0
  0
ENDSEC
  0
SECTION
  2
TABLES
  0
TABLE
  2
VPORT
  5
12
100
AcDbSymbolTable
 70
     2
  0
VPORT
  5
27F4
100
AcDbSymbolTableRecord
100
AcDbViewportTableRecord
  2
*ACTIVE
 70
     0
 10
0.0
 20
0.0
 11
1.0
 21
1.0
 12
-34.7226
 22
86.901947
 13
126.431726
 23
84.642504
 14
24.0
 24
24.0
 15
96.0
 25
96.0
 16
0.0
 26
0.0
 36
1.0
 17
0.0
 27
0.0
 37
0.0
 40
67.396826
 41
1.700368
 42
50.0
 43
0.0
 44
0.0
 50
0.0
 51
0.0
 71
     0
 72
  2000
 73
     1
 74
     0
 75
     0
 76
     1
 77
     0
 78
     1
  0
ENDTAB
  0
TABLE
  2
LTYPE
  5
D
100
AcDbSymbolTable
 70
     1
  0
LTYPE
  5
E
100
AcDbSymbolTableRecord
100
AcDbLinetypeTableRecord
  2
BYBLOCK
 70
     0
  3

 72
    65
 73
     0
 40
0.0
  0
LTYPE
  5
F
100
AcDbSymbolTableRecord
100
AcDbLinetypeTableRecord
  2
BYLAYER
 70
     0
  3

 72
    65
 73
     0
 40
0.0
  0
LTYPE
  5
5
100
AcDbSymbolTableRecord
100
AcDbLinetypeTableRecord
  2
CONTINUOUS
 70
     0
  3
Solid line
 72
    65
 73
     0
 40
0.0
  0
ENDTAB
  0
TABLE
  2
LAYER
  5
A
100
AcDbSymbolTable
 70
     6
  0
LAYER
  5
4
100
AcDbSymbolTableRecord
100
AcDbLayerTableRecord
  2
0
 70
     0
 62
     7
  6
CONTINUOUS
  0
LAYER
  5
26
100
AcDbSymbolTableRecord
100
AcDbLayerTableRecord
  2
A-WALL-SHKE
 70
     0
 62
     5
  6
CONTINUOUS
  0
LAYER
  5
302
100
AcDbSymbolTableRecord
100
AcDbLayerTableRecord
  2
A-WALL-STUD
 70
     0
 62
     1
  6
CONTINUOUS
  0
LAYER
  5
24
100
AcDbSymbolTableRecord
100
AcDbLayerTableRecord
  2
A-WALL-SHTH
 70
     0
 62
   232
  6
CONTINUOUS
  0
LAYER
  5
1B
100
AcDbSymbolTableRecord
100
AcDbLayerTableRecord
  2
A-HATCH
 70
     0
 62
   154
  6
CONTINUOUS
  0
LAYER
  5
276E
100
AcDbSymbolTableRecord
100
AcDbLayerTableRecord
  2
A-TEXT
 70
     0
 62
     2
  6
CONTINUOUS
  0
ENDTAB
  0
TABLE
  2
STYLE
  5
B
100
AcDbSymbolTable
 70
     2
  0
STYLE
  5
C
100
AcDbSymbolTableRecord
100
AcDbTextStyleTableRecord
  2
STANDARD
 70
     0
 40
0.0
 41
0.81
 50
0.0
 71
     0
 42
1.0
  3
romans.shx
  4

  0
STYLE
  5
27E0
100
AcDbSymbolTableRecord
100
AcDbTextStyleTableRecord
  2
ROMANS
 70
     0
 40
0.0
 41
0.81
 50
0.0
 71
     0
 42
12.0
  3
romans.shx
  4

  0
ENDTAB
  0
TABLE
  2
VIEW
  5
10
100
AcDbSymbolTable
 70
     0
  0
ENDTAB
  0
TABLE
  2
UCS
  5
11
100
AcDbSymbolTable
 70
     0
  0
ENDTAB
  0
TABLE
  2
APPID
  5
14
100
AcDbSymbolTable
 70
     5
  0
APPID
  5
15
100
AcDbSymbolTableRecord
100
AcDbRegAppTableRecord
  2
ACAD
 70
     0
  0
APPID
  5
4DF
100
AcDbSymbolTableRecord
100
AcDbRegAppTableRecord
  2
ICONTOOL_206_545-6877
 70
     0
  0
APPID
  5
4E0
100
AcDbSymbolTableRecord
100
AcDbRegAppTableRecord
  2
RMAINSERT_206_545-6877
 70
     0
  0
APPID
  5
4E1
100
AcDbSymbolTableRecord
100
AcDbRegAppTableRecord
  2
RMASCALE_206_545-6877
 70
     0
  0
APPID
  5
4E2
100
AcDbSymbolTableRecord
100
AcDbRegAppTableRecord
  2
RMACOMMAND_206_545-6877
 70
     0
  0
ENDTAB
  0
TABLE
  2
DIMSTYLE
  5
16
100
AcDbSymbolTable
 70
     4
  0
DIMSTYLE
105
1D
100
AcDbSymbolTableRecord
100
AcDbDimStyleTableRecord
  2
STANDARD
 70
     0
  3

  4

  5

  6

  7

 40
1.0
 41
0.18
 42
0.0625
 43
0.38
 44
0.18
 45
0.0
 46
0.0
 47
0.0
 48
0.0
140
0.18
141
0.09
142
0.0
143
25.4
144
1.0
145
0.0
146
1.0
147
0.09
 71
     0
 72
     0
 73
     1
 74
     1
 75
     0
 76
     0
 77
     0
 78
     0
170
     0
171
     2
172
     0
173
     0
174
     0
175
     0
176
     0
177
     0
178
     0
270
     2
271
     4
272
     4
273
     2
274
     2
340
C
275
     0
280
     0
281
     0
282
     0
283
     1
284
     0
285
     0
286
     0
287
     3
288
     0
  0
DIMSTYLE
105
27E1
100
AcDbSymbolTableRecord
100
AcDbDimStyleTableRecord
  2
FACDIM_METRIC
 70
     0
  3
 mm
  4

  5

  6

  7

 40
0.0
 41
0.125
 42
0.0625
 43
0.0
 44
0.0625
 45
0.125
 46
0.0
 47
0.0
 48
0.0
140
0.125
141
0.09375
142
0.0
143
25.4
144
1.0
145
0.0
146
0.8
147
0.0
 71
     0
 72
     0
 73
     0
 74
     0
 75
     0
 76
     0
 77
     1
 78
     3
170
     0
171
     2
172
     1
173
     0
174
     1
175
     0
176
     3
177
     3
178
   256
270
     6
271
     4
272
     4
273
     2
274
     2
340
27E0
275
     0
280
     0
281
     0
282
     0
283
     1
284
     0
285
     0
286
     0
287
     3
288
     0
  0
DIMSTYLE
105
27E2
100
AcDbSymbolTableRecord
100
AcDbDimStyleTableRecord
  2
FACDIML
 70
     0
  3
 mm
  4

  5

  6

  7

 40
0.0
 41
0.125
 42
0.0625
 43
0.0
 44
0.0625
 45
0.125
 46
0.0
 47
0.0
 48
0.0
140
0.125
141
0.09375
142
0.0
143
25.4
144
1.0
145
0.0
146
0.8
147
0.0625
 71
     0
 72
     0
 73
     0
 74
     0
 75
     0
 76
     0
 77
     0
 78
     3
170
     0
171
     2
172
     1
173
     0
174
     1
175
     0
176
     3
177
     3
178
   256
270
     6
271
     4
272
     4
273
     2
274
     2
340
27E0
275
     0
280
     0
281
     0
282
     0
283
     1
284
     0
285
     0
286
     0
287
     3
288
     0
  0
DIMSTYLE
105
27E3
100
AcDbSymbolTableRecord
100
AcDbDimStyleTableRecord
  2
FACDIM
 70
     0
  3
 
  4

  5

  6

  7

 40
0.0
 41
0.125
 42
0.0625
 43
0.0
 44
0.0625
 45
0.125
 46
0.0
 47
0.0
 48
0.0
140
0.125
141
0.09375
142
0.0
143
25.4
144
1.0
145
0.0
146
0.8
147
0.0312
 71
     0
 72
     0
 73
     0
 74
     0
 75
     0
 76
     0
 77
     1
 78
     3
170
     0
171
     2
172
     1
173
     0
174
     1
175
     0
176
     3
177
     3
178
   256
270
     6
271
     4
272
     4
273
     2
274
     2
340
27E0
275
     0
280
     0
281
     0
282
     0
283
     1
284
     0
285
     0
286
     0
287
     3
288
     0
  0
ENDTAB
  0
TABLE
  2
BLOCK_RECORD
  5
1
100
AcDbSymbolTable
 70
     3
  0
BLOCK_RECORD
  5
2
100
AcDbSymbolTableRecord
100
AcDbBlockTableRecord
  2
*MODEL_SPACE
  0
BLOCK_RECORD
  5
7
100
AcDbSymbolTableRecord
100
AcDbBlockTableRecord
  2
*PAPER_SPACE
  0
BLOCK_RECORD
  5
F96
100
AcDbSymbolTableRecord
100
AcDbBlockTableRecord
  2
RYAN001
  0
BLOCK_RECORD
  5
135B
100
AcDbSymbolTableRecord
100
AcDbBlockTableRecord
  2
WOOD
  0
BLOCK_RECORD
  5
27E4
100
AcDbSymbolTableRecord
100
AcDbBlockTableRecord
  2
NEWCOLOR
  0
ENDTAB
  0
ENDSEC
  0
SECTION
  2
BLOCKS
  0
BLOCK
  5
3
100
AcDbEntity
  8
0
100
AcDbBlockBegin
  2
*MODEL_SPACE
 70
     0
 10
0.0
 20
0.0
 30
0.0
  3
*MODEL_SPACE
  1

  0
ENDBLK
  5
6
100
AcDbEntity
  8
0
100
AcDbBlockEnd
  0
BLOCK
  5
8
100
AcDbEntity
 67
     1
  8
0
100
AcDbBlockBegin
  2
*PAPER_SPACE
 70
     0
 10
0.0
 20
0.0
 30
0.0
  3
*PAPER_SPACE
  1

  0
ENDBLK
  5
9
100
AcDbEntity
 67
     1
  8
0
100
AcDbBlockEnd
  0
BLOCK
  5
1137
100
AcDbEntity
  8
0
100
AcDbBlockBegin
  2
RYAN001
 70
     0
 10
0.0
 20
0.0
 30
0.0
  3
RYAN001
  1

  0
LINE
  5
F97
100
AcDbEntity
  8
A-WALL-STUD
100
AcDbLine
 10
-3.5
 20
41.893979
 30
0.0
 11
-3.5
 21
0.0
 31
0.0
  0
LINE
  5
F98
100
AcDbEntity
  8
A-WALL-STUD
100
AcDbLine
 10
0.0
 20
41.893979
 30
0.0
 11
0.0
 21
0.0
 31
0.0
  0
LINE
  5
F99
100
AcDbEntity
  8
A-WALL-SHKE
100
AcDbLine
 10
-4.600917
 20
34.774273
 30
0.0
 11
-4.839502
 21
28.904119
 31
0.0
  0
LINE
  5
F9A
100
AcDbEntity
  8
A-WALL-SHKE
100
AcDbLine
 10
-5.049741
 20
36.043547
 30
0.0
 11
-5.384776
 21
27.800353
 31
0.0
  0
LINE
  5
F9B
100
AcDbEntity
  8
A-WALL-SHKE
100
AcDbLine
 10
-4.799948
 20
36.033394
 30
0.0
 11
-5.134983
 21
27.7902
 31
0.0
  0
LINE
  5
F9C
100
AcDbEntity
  8
A-WALL-SHTH
100
AcDbLine
 10
-4.6
 20
42.150677
 30
0.0
 11
-4.6
 21
1.097746
 31
0.0
  0
LINE
  5
F9D
100
AcDbEntity
  8
A-WALL-STUD
100
AcDbLine
 10
-3.5
 20
14.893979
 30
0.0
 11
-4.5
 21
11.393979
 31
0.0
  0
LINE
  5
F9E
100
AcDbEntity
  8
A-WALL-STUD
100
AcDbLine
 10
-4.5
 20
14.893979
 30
0.0
 11
-3.5
 21
11.393979
 31
0.0
  0
LINE
  5
F9F
100
AcDbEntity
  8
A-WALL-STUD
100
AcDbLine
 10
-4.5
 20
14.893979
 30
0.0
 11
-4.5
 21
11.393979
 31
0.0
  0
LINE
  5
FA0
100
AcDbEntity
  8
A-WALL-SHKE
100
AcDbLine
 10
-4.6
 20
14.511016
 30
0.0
 11
-4.807192
 21
9.765537
 31
0.0
  0
LINE
  5
FA1
100
AcDbEntity
  8
A-WALL-SHKE
100
AcDbLine
 10
-5.045
 20
15.781636
 30
0.0
 11
-5.355788
 21
8.663417
 31
0.0
  0
LINE
  5
FA2
100
AcDbEntity
  8
A-WALL-SHKE
100
AcDbLine
 10
-4.795238
 20
15.770731
 30
0.0
 11
-5.106026
 21
8.652512
 31
0.0
  0
LINE
  5
FA3
100
AcDbEntity
  8
A-WALL-SHKE
100
AcDbLine
 10
-5.056954
 20
9.776441
 30
0.0
 11
-5.416814
 21
1.534294
 31
0.0
  0
LINE
  5
FA4
100
AcDbEntity
  8
A-WALL-SHKE
100
AcDbLine
 10
-4.807192
 20
9.765537
 30
0.0
 11
-5.167052
 21
1.523389
 31
0.0
  0
POLYLINE
  5
FA5
100
AcDbEntity
  8
A-WALL-SHTH
100
AcDb2dPolyline
 66
     1
 10
0.0
 20
0.0
 30
0.0
 70
     4
 75
     6
  0
VERTEX
  5
FA6
100
AcDbEntity
  8
A-WALL-SHTH
100
AcDbVertex
100
AcDb2dVertex
 10
-4.6
 20
1.097746
 30
0.0
 70
    16
  0
VERTEX
  5
FA7
100
AcDbEntity
  8
A-WALL-SHTH
100
AcDbVertex
100
AcDb2dVertex
 10
-4.6
 20
1.097746
 30
0.0
 70
     8
  0
VERTEX
  5
FA8
100
AcDbEntity
  8
A-WALL-SHTH
100
AcDbVertex
100
AcDb2dVertex
 10
-4.602729
 20
0.837763
 30
0.0
 70
     8
  0
VERTEX
  5
FA9
100
AcDbEntity
  8
A-WALL-SHTH
100
AcDbVertex
100
AcDb2dVertex
 10
-4.610753
 20
0.622868
 30
0.0
 70
     8
  0
VERTEX
  5
FAA
100
AcDbEntity
  8
A-WALL-SHTH
100
AcDbVertex
100
AcDb2dVertex
 10
-4.623825
 20
0.446959
 30
0.0
 70
     8
  0
VERTEX
  5
FAB
100
AcDbEntity
  8
A-WALL-SHTH
100
AcDbVertex
100
AcDb2dVertex
 10
-4.641697
 20
0.303935
 30
0.0
 70
     8
  0
VERTEX
  5
FAC
100
AcDbEntity
  8
A-WALL-SHTH
100
AcDbVertex
100
AcDb2dVertex
 10
-4.664124
 20
0.187692
 30
0.0
 70
     8
  0
VERTEX
  5
FAD
100
AcDbEntity
  8
A-WALL-SHTH
100
AcDbVertex
100
AcDb2dVertex
 10
-4.690858
 20
0.09213
 30
0.0
 70
     8
  0
VERTEX
  5
FAE
100
AcDbEntity
  8
A-WALL-SHTH
100
AcDbVertex
100
AcDb2dVertex
 10
-4.721653
 20
0.011147
 30
0.0
 70
     8
  0
VERTEX
  5
FAF
100
AcDbEntity
  8
A-WALL-SHTH
100
AcDbVertex
100
AcDb2dVertex
 10
-4.756262
 20
-0.06136
 30
0.0
 70
     8
  0
VERTEX
  5
FB0
100
AcDbEntity
  8
A-WALL-SHTH
100
AcDbVertex
100
AcDb2dVertex
 10
-4.794537
 20
-0.130372
 30
0.0
 70
     8
  0
VERTEX
  5
FB1
100
AcDbEntity
  8
A-WALL-SHTH
100
AcDbVertex
100
AcDb2dVertex
 10
-4.836725
 20
-0.196395
 30
0.0
 70
     8
  0
VERTEX
  5
FB2
100
AcDbEntity
  8
A-WALL-SHTH
100
AcDbVertex
100
AcDb2dVertex
 10
-4.883174
 20
-0.258817
 30
0.0
 70
     8
  0
VERTEX
  5
FB3
100
AcDbEntity
  8
A-WALL-SHTH
100
AcDbVertex
100
AcDb2dVertex
 10
-4.934228
 20
-0.317022
 30
0.0
 70
     8
  0
VERTEX
  5
FB4
100
AcDbEntity
  8
A-WALL-SHTH
100
AcDbVertex
100
AcDb2dVertex
 10
-4.990235
 20
-0.370398
 30
0.0
 70
     8
  0
VERTEX
  5
FB5
100
AcDbEntity
  8
A-WALL-SHTH
100
AcDbVertex
100
AcDb2dVertex
 10
-5.051541
 20
-0.418332
 30
0.0
 70
     8
  0
VERTEX
  5
FB6
100
AcDbEntity
  8
A-WALL-SHTH
100
AcDbVertex
100
AcDb2dVertex
 10
-5.118493
 20
-0.460209
 30
0.0
 70
     8
  0
VERTEX
  5
FB7
100
AcDbEntity
  8
A-WALL-SHTH
100
AcDbVertex
100
AcDb2dVertex
 10
-5.191435
 20
-0.495416
 30
0.0
 70
     8
  0
VERTEX
  5
FB8
100
AcDbEntity
  8
A-WALL-SHTH
100
AcDbVertex
100
AcDb2dVertex
 10
-5.27046
 20
-0.523468
 30
0.0
 70
     8
  0
VERTEX
  5
FB9
100
AcDbEntity
  8
A-WALL-SHTH
100
AcDbVertex
100
AcDb2dVertex
 10
-5.354634
 20
-0.544395
 30
0.0
 70
     8
  0
VERTEX
  5
FBA
100
AcDbEntity
  8
A-WALL-SHTH
100
AcDbVertex
100
AcDb2dVertex
 10
-5.44277
 20
-0.558355
 30
0.0
 70
     8
  0
VERTEX
  5
FBB
100
AcDbEntity
  8
A-WALL-SHTH
100
AcDbVertex
100
AcDb2dVertex
 10
-5.533678
 20
-0.565507
 30
0.0
 70
     8
  0
VERTEX
  5
FBC
100
AcDbEntity
  8
A-WALL-SHTH
100
AcDbVertex
100
AcDb2dVertex
 10
-5.626171
 20
-0.566008
 30
0.0
 70
     8
  0
VERTEX
  5
FBD
100
AcDbEntity
  8
A-WALL-SHTH
100
AcDbVertex
100
AcDb2dVertex
 10
-5.719059
 20
-0.560018
 30
0.0
 70
     8
  0
VERTEX
  5
FBE
100
AcDbEntity
  8
A-WALL-SHTH
100
AcDbVertex
100
AcDb2dVertex
 10
-5.811156
 20
-0.547694
 30
0.0
 70
     8
  0
VERTEX
  5
FBF
100
AcDbEntity
  8
A-WALL-SHTH
100
AcDbVertex
100
AcDb2dVertex
 10
-5.901272
 20
-0.529195
 30
0.0
 70
     8
  0
VERTEX
  5
FC0
100
AcDbEntity
  8
A-WALL-SHTH
100
AcDbVertex
100
AcDb2dVertex
 10
-5.988285
 20
-0.504626
 30
0.0
 70
     8
  0
VERTEX
  5
FC1
100
AcDbEntity
  8
A-WALL-SHTH
100
AcDbVertex
100
AcDb2dVertex
 10
-6.071337
 20
-0.473882
 30
0.0
 70
     8
  0
VERTEX
  5
FC2
100
AcDbEntity
  8
A-WALL-SHTH
100
AcDbVertex
100
AcDb2dVertex
 10
-6.149635
 20
-0.436805
 30
0.0
 70
     8
  0
VERTEX
  5
FC3
100
AcDbEntity
  8
A-WALL-SHTH
100
AcDbVertex
100
AcDb2dVertex
 10
-6.222388
 20
-0.393235
 30
0.0
 70
     8
  0
VERTEX
  5
FC4
100
AcDbEntity
  8
A-WALL-SHTH
100
AcDbVertex
100
AcDb2dVertex
 10
-6.288803
 20
-0.343016
 30
0.0
 70
     8
  0
VERTEX
  5
FC5
100
AcDbEntity
  8
A-WALL-SHTH
100
AcDbVertex
100
AcDb2dVertex
 10
-6.348088
 20
-0.285988
 30
0.0
 70
     8
  0
VERTEX
  5
FC6
100
AcDbEntity
  8
A-WALL-SHTH
100
AcDbVertex
100
AcDb2dVertex
 10
-6.399451
 20
-0.221993
 30
0.0
 70
     8
  0
VERTEX
  5
FC7
100
AcDbEntity
  8
A-WALL-SHTH
100
AcDbVertex
100
AcDb2dVertex
 10
-6.442099
 20
-0.150873
 30
0.0
 70
     8
  0
VERTEX
  5
FC8
100
AcDbEntity
  8
A-WALL-SHTH
100
AcDbVertex
100
AcDb2dVertex
 10
-6.475373
 20
-0.072707
 30
0.0
 70
     8
  0
VERTEX
  5
FC9
100
AcDbEntity
  8
A-WALL-SHTH
100
AcDbVertex
100
AcDb2dVertex
 10
-6.49914
 20
0.011476
 30
0.0
 70
     8
  0
VERTEX
  5
FCA
100
AcDbEntity
  8
A-WALL-SHTH
100
AcDbVertex
100
AcDb2dVertex
 10
-6.5134
 20
0.100409
 30
0.0
 70
     8
  0
VERTEX
  5
FCB
100
AcDbEntity
  8
A-WALL-SHTH
100
AcDbVertex
100
AcDb2dVertex
 10
-6.518153
 20
0.192825
 30
0.0
 70
     8
  0
VERTEX
  5
FCC
100
AcDbEntity
  8
A-WALL-SHTH
100
AcDbVertex
100
AcDb2dVertex
 10
-6.5134
 20
0.287458
 30
0.0
 70
     8
  0
VERTEX
  5
FCD
100
AcDbEntity
  8
A-WALL-SHTH
100
AcDbVertex
100
AcDb2dVertex
 10
-6.49914
 20
0.383041
 30
0.0
 70
     8
  0
VERTEX
  5
FCE
100
AcDbEntity
  8
A-WALL-SHTH
100
AcDbVertex
100
AcDb2dVertex
 10
-6.475373
 20
0.478308
 30
0.0
 70
     8
  0
VERTEX
  5
FCF
100
AcDbEntity
  8
A-WALL-SHTH
100
AcDbVertex
100
AcDb2dVertex
 10
-6.442099
 20
0.571991
 30
0.0
 70
     8
  0
VERTEX
  5
FD0
100
AcDbEntity
  8
A-WALL-SHTH
100
AcDbVertex
100
AcDb2dVertex
 10
-6.399451
 20
0.662791
 30
0.0
 70
     8
  0
VERTEX
  5
FD1
100
AcDbEntity
  8
A-WALL-SHTH
100
AcDbVertex
100
AcDb2dVertex
 10
-6.348088
 20
0.749276
 30
0.0
 70
     8
  0
VERTEX
  5
FD2
100
AcDbEntity
  8
A-WALL-SHTH
100
AcDbVertex
100
AcDb2dVertex
 10
-6.288803
 20
0.829982
 30
0.0
 70
     8
  0
VERTEX
  5
FD3
100
AcDbEntity
  8
A-WALL-SHTH
100
AcDbVertex
100
AcDb2dVertex
 10
-6.222388
 20
0.903444
 30
0.0
 70
     8
  0
VERTEX
  5
FD4
100
AcDbEntity
  8
A-WALL-SHTH
100
AcDbVertex
100
AcDb2dVertex
 10
-6.149635
 20
0.968198
 30
0.0
 70
     8
  0
VERTEX
  5
FD5
100
AcDbEntity
  8
A-WALL-SHTH
100
AcDbVertex
100
AcDb2dVertex
 10
-6.071337
 20
1.022778
 30
0.0
 70
     8
  0
VERTEX
  5
FD6
100
AcDbEntity
  8
A-WALL-SHTH
100
AcDbVertex
100
AcDb2dVertex
 10
-5.988285
 20
1.065721
 30
0.0
 70
     8
  0
VERTEX
  5
FD7
100
AcDbEntity
  8
A-WALL-SHTH
100
AcDbVertex
100
AcDb2dVertex
 10
-5.901272
 20
1.095561
 30
0.0
 70
     8
  0
VERTEX
  5
FD8
100
AcDbEntity
  8
A-WALL-SHTH
100
AcDbVertex
100
AcDb2dVertex
 10
-5.811149
 20
1.111276
 30
0.0
 70
     8
  0
VERTEX
  5
FD9
100
AcDbEntity
  8
A-WALL-SHTH
100
AcDbVertex
100
AcDb2dVertex
 10
-5.719006
 20
1.113611
 30
0.0
 70
     8
  0
VERTEX
  5
FDA
100
AcDbEntity
  8
A-WALL-SHTH
100
AcDbVertex
100
AcDb2dVertex
 10
-5.625992
 20
1.103755
 30
0.0
 70
     8
  0
VERTEX
  5
FDB
100
AcDbEntity
  8
A-WALL-SHTH
100
AcDbVertex
100
AcDb2dVertex
 10
-5.533255
 20
1.082894
 30
0.0
 70
     8
  0
VERTEX
  5
FDC
100
AcDbEntity
  8
A-WALL-SHTH
100
AcDbVertex
100
AcDb2dVertex
 10
-5.441944
 20
1.052216
 30
0.0
 70
     8
  0
VERTEX
  5
FDD
100
AcDbEntity
  8
A-WALL-SHTH
100
AcDbVertex
100
AcDb2dVertex
 10
-5.353208
 20
1.012908
 30
0.0
 70
     8
  0
VERTEX
  5
FDE
100
AcDbEntity
  8
A-WALL-SHTH
100
AcDbVertex
100
AcDb2dVertex
 10
-5.268196
 20
0.966159
 30
0.0
 70
     8
  0
VERTEX
  5
FDF
100
AcDbEntity
  8
A-WALL-SHTH
100
AcDbVertex
100
AcDb2dVertex
 10
-5.188055
 20
0.913156
 30
0.0
 70
     8
  0
VERTEX
  5
FE0
100
AcDbEntity
  8
A-WALL-SHTH
100
AcDbVertex
100
AcDb2dVertex
 10
-5.113843
 20
0.855019
 30
0.0
 70
     8
  0
VERTEX
  5
FE1
100
AcDbEntity
  8
A-WALL-SHTH
100
AcDbVertex
100
AcDb2dVertex
 10
-5.046246
 20
0.792608
 30
0.0
 70
     8
  0
VERTEX
  5
FE2
100
AcDbEntity
  8
A-WALL-SHTH
100
AcDbVertex
100
AcDb2dVertex
 10
-4.985859
 20
0.726713
 30
0.0
 70
     8
  0
VERTEX
  5
FE3
100
AcDbEntity
  8
A-WALL-SHTH
100
AcDbVertex
100
AcDb2dVertex
 10
-4.933275
 20
0.658126
 30
0.0
 70
     8
  0
VERTEX
  5
FE4
100
AcDbEntity
  8
A-WALL-SHTH
100
AcDbVertex
100
AcDb2dVertex
 10
-4.889088
 20
0.58764
 30
0.0
 70
     8
  0
VERTEX
  5
FE5
100
AcDbEntity
  8
A-WALL-SHTH
100
AcDbVertex
100
AcDb2dVertex
 10
-4.853894
 20
0.516045
 30
0.0
 70
     8
  0
VERTEX
  5
FE6
100
AcDbEntity
  8
A-WALL-SHTH
100
AcDbVertex
100
AcDb2dVertex
 10
-4.828285
 20
0.444133
 30
0.0
 70
     8
  0
VERTEX
  5
FE7
100
AcDbEntity
  8
A-WALL-SHTH
100
AcDbVertex
100
AcDb2dVertex
 10
-4.812856
 20
0.372696
 30
0.0
 70
     8
  0
VERTEX
  5
FE8
100
AcDbEntity
  8
A-WALL-SHTH
100
AcDbVertex
100
AcDb2dVertex
 10
-4.80807
 20
0.302487
 30
0.0
 70
     8
  0
VERTEX
  5
FE9
100
AcDbEntity
  8
A-WALL-SHTH
100
AcDbVertex
100
AcDb2dVertex
 10
-4.81386
 20
0.234098
 30
0.0
 70
     8
  0
VERTEX
  5
FEA
100
AcDbEntity
  8
A-WALL-SHTH
100
AcDbVertex
100
AcDb2dVertex
 10
-4.830028
 20
0.168085
 30
0.0
 70
     8
  0
VERTEX
  5
FEB
100
AcDbEntity
  8
A-WALL-SHTH
100
AcDbVertex
100
AcDb2dVertex
 10
-4.856376
 20
0.105
 30
0.0
 70
     8
  0
VERTEX
  5
FEC
100
AcDbEntity
  8
A-WALL-SHTH
100
AcDbVertex
100
AcDb2dVertex
 10
-4.892706
 20
0.045399
 30
0.0
 70
     8
  0
VERTEX
  5
FED
100
AcDbEntity
  8
A-WALL-SHTH
100
AcDbVertex
100
AcDb2dVertex
 10
-4.93882
 20
-0.010164
 30
0.0
 70
     8
  0
VERTEX
  5
FEE
100
AcDbEntity
  8
A-WALL-SHTH
100
AcDbVertex
100
AcDb2dVertex
 10
-4.994521
 20
-0.061135
 30
0.0
 70
     8
  0
VERTEX
  5
FEF
100
AcDbEntity
  8
A-WALL-SHTH
100
AcDbVertex
100
AcDb2dVertex
 10
-5.059609
 20
-0.106961
 30
0.0
 70
     8
  0
VERTEX
  5
FF0
100
AcDbEntity
  8
A-WALL-SHTH
100
AcDbVertex
100
AcDb2dVertex
 10
-5.13359
 20
-0.147099
 30
0.0
 70
     8
  0
VERTEX
  5
FF1
100
AcDbEntity
  8
A-WALL-SHTH
100
AcDbVertex
100
AcDb2dVertex
 10
-5.21478
 20
-0.181063
 30
0.0
 70
     8
  0
VERTEX
  5
FF2
100
AcDbEntity
  8
A-WALL-SHTH
100
AcDbVertex
100
AcDb2dVertex
 10
-5.301199
 20
-0.208376
 30
0.0
 70
     8
  0
VERTEX
  5
FF3
100
AcDbEntity
  8
A-WALL-SHTH
100
AcDbVertex
100
AcDb2dVertex
 10
-5.390866
 20
-0.228564
 30
0.0
 70
     8
  0
VERTEX
  5
FF4
100
AcDbEntity
  8
A-WALL-SHTH
100
AcDbVertex
100
AcDb2dVertex
 10
-5.4818
 20
-0.241152
 30
0.0
 70
     8
  0
VERTEX
  5
FF5
100
AcDbEntity
  8
A-WALL-SHTH
100
AcDbVertex
100
AcDb2dVertex
 10
-5.572022
 20
-0.245665
 30
0.0
 70
     8
  0
VERTEX
  5
FF6
100
AcDbEntity
  8
A-WALL-SHTH
100
AcDbVertex
100
AcDb2dVertex
 10
-5.65955
 20
-0.241627
 30
0.0
 70
     8
  0
VERTEX
  5
FF7
100
AcDbEntity
  8
A-WALL-SHTH
100
AcDbVertex
100
AcDb2dVertex
 10
-5.742403
 20
-0.228564
 30
0.0
 70
     8
  0
VERTEX
  5
FF8
100
AcDbEntity
  8
A-WALL-SHTH
100
AcDbVertex
100
AcDb2dVertex
 10
-5.818873
 20
-0.206192
 30
0.0
 70
     8
  0
VERTEX
  5
FF9
100
AcDbEntity
  8
A-WALL-SHTH
100
AcDbVertex
100
AcDb2dVertex
 10
-5.888332
 20
-0.174993
 30
0.0
 70
     8
  0
VERTEX
  5
FFA
100
AcDbEntity
  8
A-WALL-SHTH
100
AcDbVertex
100
AcDb2dVertex
 10
-5.950423
 20
-0.13564
 30
0.0
 70
     8
  0
VERTEX
  5
FFB
100
AcDbEntity
  8
A-WALL-SHTH
100
AcDbVertex
100
AcDb2dVertex
 10
-6.004789
 20
-0.088805
 30
0.0
 70
     8
  0
VERTEX
  5
FFC
100
AcDbEntity
  8
A-WALL-SHTH
100
AcDbVertex
100
AcDb2dVertex
 10
-6.051075
 20
-0.035161
 30
0.0
 70
     8
  0
VERTEX
  5
FFD
100
AcDbEntity
  8
A-WALL-SHTH
100
AcDbVertex
100
AcDb2dVertex
 10
-6.088924
 20
0.024618
 30
0.0
 70
     8
  0
VERTEX
  5
FFE
100
AcDbEntity
  8
A-WALL-SHTH
100
AcDbVertex
100
AcDb2dVertex
 10
-6.117979
 20
0.089859
 30
0.0
 70
     8
  0
VERTEX
  5
FFF
100
AcDbEntity
  8
A-WALL-SHTH
100
AcDbVertex
100
AcDb2dVertex
 10
-6.137884
 20
0.159891
 30
0.0
 70
     8
  0
VERTEX
  5
1000
100
AcDbEntity
  8
A-WALL-SHTH
100
AcDbVertex
100
AcDb2dVertex
 10
-6.14846
 20
0.233874
 30
0.0
 70
     8
  0
VERTEX
  5
1001
100
AcDbEntity
  8
A-WALL-SHTH
100
AcDbVertex
100
AcDb2dVertex
 10
-6.150242
 20
0.310312
 30
0.0
 70
     8
  0
VERTEX
  5
1002
100
AcDbEntity
  8
A-WALL-SHTH
100
AcDbVertex
100
AcDb2dVertex
 10
-6.143944
 20
0.387541
 30
0.0
 70
     8
  0
VERTEX
  5
1003
100
AcDbEntity
  8
A-WALL-SHTH
100
AcDbVertex
100
AcDb2dVertex
 10
-6.130278
 20
0.463899
 30
0.0
 70
     8
  0
VERTEX
  5
1004
100
AcDbEntity
  8
A-WALL-SHTH
100
AcDbVertex
100
AcDb2dVertex
 10
-6.109958
 20
0.537724
 30
0.0
 70
     8
  0
VERTEX
  5
1005
100
AcDbEntity
  8
A-WALL-SHTH
100
AcDbVertex
100
AcDb2dVertex
 10
-6.083695
 20
0.607353
 30
0.0
 70
     8
  0
VERTEX
  5
1006
100
AcDbEntity
  8
A-WALL-SHTH
100
AcDbVertex
100
AcDb2dVertex
 10
-6.052204
 20
0.671123
 30
0.0
 70
     8
  0
VERTEX
  5
1007
100
AcDbEntity
  8
A-WALL-SHTH
100
AcDbVertex
100
AcDb2dVertex
 10
-6.016197
 20
0.727373
 30
0.0
 70
     8
  0
VERTEX
  5
1008
100
AcDbEntity
  8
A-WALL-SHTH
100
AcDbVertex
100
AcDb2dVertex
 10
-5.976296
 20
0.774742
 30
0.0
 70
     8
  0
VERTEX
  5
1009
100
AcDbEntity
  8
A-WALL-SHTH
100
AcDbVertex
100
AcDb2dVertex
 10
-5.932749
 20
0.813086
 30
0.0
 70
     8
  0
VERTEX
  5
100A
100
AcDbEntity
  8
A-WALL-SHTH
100
AcDbVertex
100
AcDb2dVertex
 10
-5.885718
 20
0.842563
 30
0.0
 70
     8
  0
VERTEX
  5
100B
100
AcDbEntity
  8
A-WALL-SHTH
100
AcDbVertex
100
AcDb2dVertex
 10
-5.835358
 20
0.863332
 30
0.0
 70
     8
  0
VERTEX
  5
100C
100
AcDbEntity
  8
A-WALL-SHTH
100
AcDbVertex
100
AcDb2dVertex
 10
-5.78183
 20
0.87555
 30
0.0
 70
     8
  0
VERTEX
  5
100D
100
AcDbEntity
  8
A-WALL-SHTH
100
AcDbVertex
100
AcDb2dVertex
 10
-5.725291
 20
0.879377
 30
0.0
 70
     8
  0
VERTEX
  5
100E
100
AcDbEntity
  8
A-WALL-SHTH
100
AcDbVertex
100
AcDb2dVertex
 10
-5.665901
 20
0.87497
 30
0.0
 70
     8
  0
VERTEX
  5
100F
100
AcDbEntity
  8
A-WALL-SHTH
100
AcDbVertex
100
AcDb2dVertex
 10
-5.603816
 20
0.862487
 30
0.0
 70
     8
  0
VERTEX
  5
1010
100
AcDbEntity
  8
A-WALL-SHTH
100
AcDbVertex
100
AcDb2dVertex
 10
-5.539415
 20
0.842174
 30
0.0
 70
     8
  0
VERTEX
  5
1011
100
AcDbEntity
  8
A-WALL-SHTH
100
AcDbVertex
100
AcDb2dVertex
 10
-5.473944
 20
0.814617
 30
0.0
 70
     8
  0
VERTEX
  5
1012
100
AcDbEntity
  8
A-WALL-SHTH
100
AcDbVertex
100
AcDb2dVertex
 10
-5.408869
 20
0.780488
 30
0.0
 70
     8
  0
VERTEX
  5
1013
100
AcDbEntity
  8
A-WALL-SHTH
100
AcDbVertex
100
AcDb2dVertex
 10
-5.345656
 20
0.740462
 30
0.0
 70
     8
  0
VERTEX
  5
1014
100
AcDbEntity
  8
A-WALL-SHTH
100
AcDbVertex
100
AcDb2dVertex
 10
-5.28577
 20
0.69521
 30
0.0
 70
     8
  0
VERTEX
  5
1015
100
AcDbEntity
  8
A-WALL-SHTH
100
AcDbVertex
100
AcDb2dVertex
 10
-5.230677
 20
0.645407
 30
0.0
 70
     8
  0
VERTEX
  5
1016
100
AcDbEntity
  8
A-WALL-SHTH
100
AcDbVertex
100
AcDb2dVertex
 10
-5.181843
 20
0.591724
 30
0.0
 70
     8
  0
VERTEX
  5
1017
100
AcDbEntity
  8
A-WALL-SHTH
100
AcDbVertex
100
AcDb2dVertex
 10
-5.140733
 20
0.534834
 30
0.0
 70
     8
  0
VERTEX
  5
1018
100
AcDbEntity
  8
A-WALL-SHTH
100
AcDbVertex
100
AcDb2dVertex
 10
-5.108588
 20
0.475484
 30
0.0
 70
     8
  0
VERTEX
  5
1019
100
AcDbEntity
  8
A-WALL-SHTH
100
AcDbVertex
100
AcDb2dVertex
 10
-5.085752
 20
0.414709
 30
0.0
 70
     8
  0
VERTEX
  5
101A
100
AcDbEntity
  8
A-WALL-SHTH
100
AcDbVertex
100
AcDb2dVertex
 10
-5.072344
 20
0.353617
 30
0.0
 70
     8
  0
VERTEX
  5
101B
100
AcDbEntity
  8
A-WALL-SHTH
100
AcDbVertex
100
AcDb2dVertex
 10
-5.068482
 20
0.293317
 30
0.0
 70
     8
  0
VERTEX
  5
101C
100
AcDbEntity
  8
A-WALL-SHTH
100
AcDbVertex
100
AcDb2dVertex
 10
-5.074285
 20
0.234916
 30
0.0
 70
     8
  0
VERTEX
  5
101D
100
AcDbEntity
  8
A-WALL-SHTH
100
AcDbVertex
100
AcDb2dVertex
 10
-5.089872
 20
0.179525
 30
0.0
 70
     8
  0
VERTEX
  5
101E
100
AcDbEntity
  8
A-WALL-SHTH
100
AcDbVertex
100
AcDb2dVertex
 10
-5.115362
 20
0.12825
 30
0.0
 70
     8
  0
VERTEX
  5
101F
100
AcDbEntity
  8
A-WALL-SHTH
100
AcDbVertex
100
AcDb2dVertex
 10
-5.150874
 20
0.0822
 30
0.0
 70
     8
  0
VERTEX
  5
1020
100
AcDbEntity
  8
A-WALL-SHTH
100
AcDbVertex
100
AcDb2dVertex
 10
-5.196176
 20
0.042378
 30
0.0
 70
     8
  0
VERTEX
  5
1021
100
AcDbEntity
  8
A-WALL-SHTH
100
AcDbVertex
100
AcDb2dVertex
 10
-5.249638
 20
0.009364
 30
0.0
 70
     8
  0
VERTEX
  5
1022
100
AcDbEntity
  8
A-WALL-SHTH
100
AcDbVertex
100
AcDb2dVertex
 10
-5.309279
 20
-0.016366
 30
0.0
 70
     8
  0
VERTEX
  5
1023
100
AcDbEntity
  8
A-WALL-SHTH
100
AcDbVertex
100
AcDb2dVertex
 10
-5.37312
 20
-0.034337
 30
0.0
 70
     8
  0
VERTEX
  5
1024
100
AcDbEntity
  8
A-WALL-SHTH
100
AcDbVertex
100
AcDb2dVertex
 10
-5.439178
 20
-0.044075
 30
0.0
 70
     8
  0
VERTEX
  5
1025
100
AcDbEntity
  8
A-WALL-SHTH
100
AcDbVertex
100
AcDb2dVertex
 10
-5.505475
 20
-0.045104
 30
0.0
 70
     8
  0
VERTEX
  5
1026
100
AcDbEntity
  8
A-WALL-SHTH
100
AcDbVertex
100
AcDb2dVertex
 10
-5.570028
 20
-0.036949
 30
0.0
 70
     8
  0
VERTEX
  5
1027
100
AcDbEntity
  8
A-WALL-SHTH
100
AcDbVertex
100
AcDb2dVertex
 10
-5.630858
 20
-0.019136
 30
0.0
 70
     8
  0
VERTEX
  5
1028
100
AcDbEntity
  8
A-WALL-SHTH
100
AcDbVertex
100
AcDb2dVertex
 10
-5.686235
 20
0.00846
 30
0.0
 70
     8
  0
VERTEX
  5
1029
100
AcDbEntity
  8
A-WALL-SHTH
100
AcDbVertex
100
AcDb2dVertex
 10
-5.735432
 20
0.044568
 30
0.0
 70
     8
  0
VERTEX
  5
102A
100
AcDbEntity
  8
A-WALL-SHTH
100
AcDbVertex
100
AcDb2dVertex
 10
-5.777975
 20
0.087563
 30
0.0
 70
     8
  0
VERTEX
  5
102B
100
AcDbEntity
  8
A-WALL-SHTH
100
AcDbVertex
100
AcDb2dVertex
 10
-5.813387
 20
0.135823
 30
0.0
 70
     8
  0
VERTEX
  5
102C
100
AcDbEntity
  8
A-WALL-SHTH
100
AcDbVertex
100
AcDb2dVertex
 10
-5.841194
 20
0.187725
 30
0.0
 70
     8
  0
VERTEX
  5
102D
100
AcDbEntity
  8
A-WALL-SHTH
100
AcDbVertex
100
AcDb2dVertex
 10
-5.860921
 20
0.241646
 30
0.0
 70
     8
  0
VERTEX
  5
102E
100
AcDbEntity
  8
A-WALL-SHTH
100
AcDbVertex
100
AcDb2dVertex
 10
-5.872091
 20
0.295962
 30
0.0
 70
     8
  0
VERTEX
  5
102F
100
AcDbEntity
  8
A-WALL-SHTH
100
AcDbVertex
100
AcDb2dVertex
 10
-5.87423
 20
0.349051
 30
0.0
 70
     8
  0
VERTEX
  5
1030
100
AcDbEntity
  8
A-WALL-SHTH
100
AcDbVertex
100
AcDb2dVertex
 10
-5.867097
 20
0.399337
 30
0.0
 70
     8
  0
VERTEX
  5
1031
100
AcDbEntity
  8
A-WALL-SHTH
100
AcDbVertex
100
AcDb2dVertex
 10
-5.851388
 20
0.445426
 30
0.0
 70
     8
  0
VERTEX
  5
1032
100
AcDbEntity
  8
A-WALL-SHTH
100
AcDbVertex
100
AcDb2dVertex
 10
-5.828033
 20
0.485974
 30
0.0
 70
     8
  0
VERTEX
  5
1033
100
AcDbEntity
  8
A-WALL-SHTH
100
AcDbVertex
100
AcDb2dVertex
 10
-5.797965
 20
0.519634
 30
0.0
 70
     8
  0
VERTEX
  5
1034
100
AcDbEntity
  8
A-WALL-SHTH
100
AcDbVertex
100
AcDb2dVertex
 10
-5.762113
 20
0.54506
 30
0.0
 70
     8
  0
VERTEX
  5
1035
100
AcDbEntity
  8
A-WALL-SHTH
100
AcDbVertex
100
AcDb2dVertex
 10
-5.721409
 20
0.560907
 30
0.0
 70
     8
  0
VERTEX
  5
1036
100
AcDbEntity
  8
A-WALL-SHTH
100
AcDbVertex
100
AcDb2dVertex
 10
-5.676784
 20
0.565829
 30
0.0
 70
     8
  0
VERTEX
  5
1037
100
AcDbEntity
  8
A-WALL-SHTH
100
AcDbVertex
100
AcDb2dVertex
 10
-5.629168
 20
0.558479
 30
0.0
 70
     8
  0
VERTEX
  5
1038
100
AcDbEntity
  8
A-WALL-SHTH
100
AcDbVertex
100
AcDb2dVertex
 10
-5.580073
 20
0.538258
 30
0.0
 70
     8
  0
VERTEX
  5
1039
100
AcDbEntity
  8
A-WALL-SHTH
100
AcDbVertex
100
AcDb2dVertex
 10
-5.533334
 20
0.507547
 30
0.0
 70
     8
  0
VERTEX
  5
103A
100
AcDbEntity
  8
A-WALL-SHTH
100
AcDbVertex
100
AcDb2dVertex
 10
-5.49337
 20
0.469474
 30
0.0
 70
     8
  0
VERTEX
  5
103B
100
AcDbEntity
  8
A-WALL-SHTH
100
AcDbVertex
100
AcDb2dVertex
 10
-5.464595
 20
0.427165
 30
0.0
 70
     8
  0
VERTEX
  5
103C
100
AcDbEntity
  8
A-WALL-SHTH
100
AcDbVertex
100
AcDb2dVertex
 10
-5.451428
 20
0.383747
 30
0.0
 70
     8
  0
VERTEX
  5
103D
100
AcDbEntity
  8
A-WALL-SHTH
100
AcDbVertex
100
AcDb2dVertex
 10
-5.458284
 20
0.342348
 30
0.0
 70
     8
  0
VERTEX
  5
103E
100
AcDbEntity
  8
A-WALL-SHTH
100
AcDbVertex
100
AcDb2dVertex
 10
-5.48958
 20
0.306096
 30
0.0
 70
     8
  0
VERTEX
  5
103F
100
AcDbEntity
  8
A-WALL-SHTH
100
AcDbVertex
100
AcDb2dVertex
 10
-5.549734
 20
0.278116
 30
0.0
 70
     8
  0
VERTEX
  5
1040
100
AcDbEntity
  8
A-WALL-SHTH
100
AcDbVertex
100
AcDb2dVertex
 10
-4.6
 20
0.338918
 30
0.0
 70
    16
  0
VERTEX
  5
1041
100
AcDbEntity
  8
A-WALL-SHTH
100
AcDbVertex
100
AcDb2dVertex
 10
-4.718211
 20
-0.086694
 30
0.0
 70
    16
  0
VERTEX
  5
1042
100
AcDbEntity
  8
A-WALL-SHTH
100
AcDbVertex
100
AcDb2dVertex
 10
-5.123832
 20
-0.573107
 30
0.0
 70
    16
  0
VERTEX
  5
1043
100
AcDbEntity
  8
A-WALL-SHTH
100
AcDbVertex
100
AcDb2dVertex
 10
-5.935073
 20
-0.593374
 30
0.0
 70
    16
  0
VERTEX
  5
1044
100
AcDbEntity
  8
A-WALL-SHTH
100
AcDbVertex
100
AcDb2dVertex
 10
-6.543505
 20
-0.228564
 30
0.0
 70
    16
  0
VERTEX
  5
1045
100
AcDbEntity
  8
A-WALL-SHTH
100
AcDbVertex
100
AcDb2dVertex
 10
-6.543505
 20
0.602392
 30
0.0
 70
    16
  0
VERTEX
  5
1046
100
AcDbEntity
  8
A-WALL-SHTH
100
AcDbVertex
100
AcDb2dVertex
 10
-5.935073
 20
1.250943
 30
0.0
 70
    16
  0
VERTEX
  5
1047
100
AcDbEntity
  8
A-WALL-SHTH
100
AcDbVertex
100
AcDb2dVertex
 10
-5.123832
 20
0.967202
 30
0.0
 70
    16
  0
VERTEX
  5
1048
100
AcDbEntity
  8
A-WALL-SHTH
100
AcDbVertex
100
AcDb2dVertex
 10
-4.69793
 20
0.359185
 30
0.0
 70
    16
  0
VERTEX
  5
1049
100
AcDbEntity
  8
A-WALL-SHTH
100
AcDbVertex
100
AcDb2dVertex
 10
-4.961584
 20
-0.167763
 30
0.0
 70
    16
  0
VERTEX
  5
104A
100
AcDbEntity
  8
A-WALL-SHTH
100
AcDbVertex
100
AcDb2dVertex
 10
-5.813387
 20
-0.3299
 30
0.0
 70
    16
  0
VERTEX
  5
104B
100
AcDbEntity
  8
A-WALL-SHTH
100
AcDbVertex
100
AcDb2dVertex
 10
-6.239289
 20
0.115978
 30
0.0
 70
    16
  0
VERTEX
  5
104C
100
AcDbEntity
  8
A-WALL-SHTH
100
AcDbVertex
100
AcDb2dVertex
 10
-6.056759
 20
0.825331
 30
0.0
 70
    16
  0
VERTEX
  5
104D
100
AcDbEntity
  8
A-WALL-SHTH
100
AcDbVertex
100
AcDb2dVertex
 10
-5.630858
 20
0.946934
 30
0.0
 70
    16
  0
VERTEX
  5
104E
100
AcDbEntity
  8
A-WALL-SHTH
100
AcDbVertex
100
AcDb2dVertex
 10
-5.042708
 20
0.561857
 30
0.0
 70
    16
  0
VERTEX
  5
104F
100
AcDbEntity
  8
A-WALL-SHTH
100
AcDbVertex
100
AcDb2dVertex
 10
-5.042708
 20
0.014642
 30
0.0
 70
    16
  0
VERTEX
  5
1050
100
AcDbEntity
  8
A-WALL-SHTH
100
AcDbVertex
100
AcDb2dVertex
 10
-5.691701
 20
-0.127228
 30
0.0
 70
    16
  0
VERTEX
  5
1051
100
AcDbEntity
  8
A-WALL-SHTH
100
AcDbVertex
100
AcDb2dVertex
 10
-5.975636
 20
0.379452
 30
0.0
 70
    16
  0
VERTEX
  5
1052
100
AcDbEntity
  8
A-WALL-SHTH
100
AcDbVertex
100
AcDb2dVertex
 10
-5.651139
 20
0.703728
 30
0.0
 70
    16
  0
VERTEX
  5
1053
100
AcDbEntity
  8
A-WALL-SHTH
100
AcDbVertex
100
AcDb2dVertex
 10
-5.346923
 20
0.338918
 30
0.0
 70
    16
  0
VERTEX
  5
1054
100
AcDbEntity
  8
A-WALL-SHTH
100
AcDbVertex
100
AcDb2dVertex
 10
-5.549734
 20
0.278116
 30
0.0
 70
    16
  0
SEQEND
  5
1055
100
AcDbEntity
  8
A-WALL-SHTH
  0
LINE
  5
1056
100
AcDbEntity
  8
A-WALL-SHKE
100
AcDbLine
 10
-5.416814
 20
1.534294
 30
0.0
 11
-5.167052
 21
1.523389
 31
0.0
  0
LINE
  5
1057
100
AcDbEntity
  8
A-WALL-SHKE
100
AcDbLine
 10
-5.416814
 20
1.534294
 30
0.0
 11
-5.167052
 21
1.523389
 31
0.0
  0
LINE
  5
1058
100
AcDbEntity
  8
A-WALL-STUD
100
AcDbLine
 10
-3.5
 20
0.0
 30
0.0
 11
0.0
 21
0.0
 31
0.0
  0
LINE
  5
1059
100
AcDbEntity
  8
A-WALL-SHKE
100
AcDbLine
 10
-4.611954
 20
8.505822
 30
0.0
 11
-4.868218
 21
2.636413
 31
0.0
  0
LINE
  5
105A
100
AcDbEntity
  8
A-WALL-SHKE
100
AcDbLine
 10
-5.11798
 20
2.647318
 30
0.0
 11
-4.868218
 21
2.636413
 31
0.0
  0
LINE
  5
105B
100
AcDbEntity
  8
A-WALL-STUD
100
AcDbLine
 10
-4.5
 20
11.393979
 30
0.0
 11
-3.5
 21
11.393979
 31
0.0
  0
LINE
  5
105C
100
AcDbEntity
  8
A-WALL-SHKE
100
AcDbLine
 10
-4.861716
 20
8.516726
 30
0.0
 11
-4.611954
 21
8.505822
 31
0.0
  0
LINE
  5
105D
100
AcDbEntity
  8
A-WALL-SHKE
100
AcDbLine
 10
-5.355788
 20
8.663417
 30
0.0
 11
-5.106026
 21
8.652512
 31
0.0
  0
LINE
  5
105E
100
AcDbEntity
  8
A-WALL-SHKE
100
AcDbLine
 10
-5.056954
 20
9.776441
 30
0.0
 11
-4.807192
 21
9.765537
 31
0.0
  0
LINE
  5
105F
100
AcDbEntity
  8
A-WALL-SHKE
100
AcDbLine
 10
-4.839523
 20
28.903574
 30
0.0
 11
-5.097806
 21
21.783257
 31
0.0
  0
LINE
  5
1060
100
AcDbEntity
  8
A-WALL-SHKE
100
AcDbLine
 10
-5.089358
 20
28.912637
 30
0.0
 11
-5.347641
 21
21.79232
 31
0.0
  0
LINE
  5
1061
100
AcDbEntity
  8
A-WALL-SHKE
100
AcDbLine
 10
-4.635
 20
27.645333
 30
0.0
 11
-4.807188
 21
22.898455
 31
0.0
  0
LINE
  5
1062
100
AcDbEntity
  8
A-WALL-SHKE
100
AcDbLine
 10
-4.602665
 20
21.640214
 30
0.0
 11
-4.815635
 21
15.769076
 31
0.0
  0
LINE
  5
1063
100
AcDbEntity
  8
A-WALL-SHKE
100
AcDbLine
 10
-5.057024
 20
22.907518
 30
0.0
 11
-5.356088
 21
14.66294
 31
0.0
  0
LINE
  5
1064
100
AcDbEntity
  8
A-WALL-SHKE
100
AcDbLine
 10
-4.807188
 20
22.898455
 30
0.0
 11
-5.106253
 21
14.653878
 31
0.0
  0
LINE
  5
1065
100
AcDbEntity
  8
A-WALL-STUD
100
AcDbLine
 10
-4.5
 20
14.893979
 30
0.0
 11
-3.5
 21
14.893979
 31
0.0
  0
LINE
  5
1066
100
AcDbEntity
  8
A-WALL-SHKE
100
AcDbLine
 10
-4.849762
 20
14.521921
 30
0.0
 11
-4.6
 21
14.511016
 31
0.0
  0
LINE
  5
1067
100
AcDbEntity
  8
A-WALL-SHKE
100
AcDbLine
 10
-5.356088
 20
14.66294
 30
0.0
 11
-5.106253
 21
14.653878
 31
0.0
  0
LINE
  5
1068
100
AcDbEntity
  8
A-WALL-SHKE
100
AcDbLine
 10
-5.356088
 20
14.66294
 30
0.0
 11
-5.106253
 21
14.653878
 31
0.0
  0
LINE
  5
1069
100
AcDbEntity
  8
A-WALL-SHKE
100
AcDbLine
 10
-5.045
 20
15.781636
 30
0.0
 11
-4.795238
 21
15.770731
 31
0.0
  0
LINE
  5
106A
100
AcDbEntity
  8
A-WALL-SHKE
100
AcDbLine
 10
-5.065471
 20
15.778138
 30
0.0
 11
-4.815635
 21
15.769076
 31
0.0
  0
LINE
  5
106B
100
AcDbEntity
  8
A-WALL-SHKE
100
AcDbLine
 10
-4.852501
 20
21.649277
 30
0.0
 11
-4.602665
 21
21.640214
 31
0.0
  0
LINE
  5
106C
100
AcDbEntity
  8
A-WALL-SHKE
100
AcDbLine
 10
-5.347641
 20
21.79232
 30
0.0
 11
-5.097806
 21
21.783257
 31
0.0
  0
LINE
  5
106D
100
AcDbEntity
  8
A-WALL-SHKE
100
AcDbLine
 10
-5.057024
 20
22.907518
 30
0.0
 11
-4.807188
 21
22.898455
 31
0.0
  0
LINE
  5
106E
100
AcDbEntity
  8
A-WALL-STUD
100
AcDbLine
 10
-4.5
 20
27.893979
 30
0.0
 11
-3.5
 21
27.893979
 31
0.0
  0
LINE
  5
106F
100
AcDbEntity
  8
A-WALL-STUD
100
AcDbLine
 10
-4.5
 20
24.393979
 30
0.0
 11
-3.5
 21
24.393979
 31
0.0
  0
LINE
  5
1070
100
AcDbEntity
  8
A-WALL-STUD
100
AcDbLine
 10
-3.5
 20
27.893979
 30
0.0
 11
-4.5
 21
24.393979
 31
0.0
  0
LINE
  5
1071
100
AcDbEntity
  8
A-WALL-STUD
100
AcDbLine
 10
-4.5
 20
27.893979
 30
0.0
 11
-3.5
 21
24.393979
 31
0.0
  0
LINE
  5
1072
100
AcDbEntity
  8
A-WALL-STUD
100
AcDbLine
 10
-4.5
 20
27.893979
 30
0.0
 11
-4.5
 21
24.393979
 31
0.0
  0
LINE
  5
1073
100
AcDbEntity
  8
A-WALL-SHKE
100
AcDbLine
 10
-4.884835
 20
27.654396
 30
0.0
 11
-4.635
 21
27.645333
 31
0.0
  0
LINE
  5
1074
100
AcDbEntity
  8
A-WALL-SHKE
100
AcDbLine
 10
-5.384776
 20
27.800353
 30
0.0
 11
-5.134983
 21
27.7902
 31
0.0
  0
LINE
  5
1075
100
AcDbEntity
  8
A-WALL-SHKE
100
AcDbLine
 10
-5.384776
 20
27.800353
 30
0.0
 11
-5.134983
 21
27.7902
 31
0.0
  0
LINE
  5
1076
100
AcDbEntity
  8
A-WALL-SHKE
100
AcDbLine
 10
-5.089358
 20
28.912637
 30
0.0
 11
-4.839523
 21
28.903574
 31
0.0
  0
LINE
  5
1077
100
AcDbEntity
  8
A-WALL-SHKE
100
AcDbLine
 10
-5.089296
 20
28.914272
 30
0.0
 11
-4.839502
 21
28.904119
 31
0.0
  0
POLYLINE
  5
1078
100
AcDbEntity
  8
A-WALL-SHTH
100
AcDb2dPolyline
 66
     1
 10
0.0
 20
0.0
 30
0.0
 70
     4
 75
     6
  0
VERTEX
  5
1079
100
AcDbEntity
  8
A-WALL-SHTH
100
AcDbVertex
100
AcDb2dVertex
 10
-4.6
 20
42.150677
 30
0.0
 70
    16
  0
VERTEX
  5
107A
100
AcDbEntity
  8
A-WALL-SHTH
100
AcDbVertex
100
AcDb2dVertex
 10
-4.6
 20
42.150677
 30
0.0
 70
     8
  0
VERTEX
  5
107B
100
AcDbEntity
  8
A-WALL-SHTH
100
AcDbVertex
100
AcDb2dVertex
 10
-4.602729
 20
42.41066
 30
0.0
 70
     8
  0
VERTEX
  5
107C
100
AcDbEntity
  8
A-WALL-SHTH
100
AcDbVertex
100
AcDb2dVertex
 10
-4.610753
 20
42.625555
 30
0.0
 70
     8
  0
VERTEX
  5
107D
100
AcDbEntity
  8
A-WALL-SHTH
100
AcDbVertex
100
AcDb2dVertex
 10
-4.623825
 20
42.801464
 30
0.0
 70
     8
  0
VERTEX
  5
107E
100
AcDbEntity
  8
A-WALL-SHTH
100
AcDbVertex
100
AcDb2dVertex
 10
-4.641697
 20
42.944489
 30
0.0
 70
     8
  0
VERTEX
  5
107F
100
AcDbEntity
  8
A-WALL-SHTH
100
AcDbVertex
100
AcDb2dVertex
 10
-4.664124
 20
43.060732
 30
0.0
 70
     8
  0
VERTEX
  5
1080
100
AcDbEntity
  8
A-WALL-SHTH
100
AcDbVertex
100
AcDb2dVertex
 10
-4.690858
 20
43.156294
 30
0.0
 70
     8
  0
VERTEX
  5
1081
100
AcDbEntity
  8
A-WALL-SHTH
100
AcDbVertex
100
AcDb2dVertex
 10
-4.721653
 20
43.237277
 30
0.0
 70
     8
  0
VERTEX
  5
1082
100
AcDbEntity
  8
A-WALL-SHTH
100
AcDbVertex
100
AcDb2dVertex
 10
-4.756262
 20
43.309783
 30
0.0
 70
     8
  0
VERTEX
  5
1083
100
AcDbEntity
  8
A-WALL-SHTH
100
AcDbVertex
100
AcDb2dVertex
 10
-4.794537
 20
43.378795
 30
0.0
 70
     8
  0
VERTEX
  5
1084
100
AcDbEntity
  8
A-WALL-SHTH
100
AcDbVertex
100
AcDb2dVertex
 10
-4.836725
 20
43.444819
 30
0.0
 70
     8
  0
VERTEX
  5
1085
100
AcDbEntity
  8
A-WALL-SHTH
100
AcDbVertex
100
AcDb2dVertex
 10
-4.883174
 20
43.50724
 30
0.0
 70
     8
  0
VERTEX
  5
1086
100
AcDbEntity
  8
A-WALL-SHTH
100
AcDbVertex
100
AcDb2dVertex
 10
-4.934228
 20
43.565446
 30
0.0
 70
     8
  0
VERTEX
  5
1087
100
AcDbEntity
  8
A-WALL-SHTH
100
AcDbVertex
100
AcDb2dVertex
 10
-4.990235
 20
43.618822
 30
0.0
 70
     8
  0
VERTEX
  5
1088
100
AcDbEntity
  8
A-WALL-SHTH
100
AcDbVertex
100
AcDb2dVertex
 10
-5.051541
 20
43.666756
 30
0.0
 70
     8
  0
VERTEX
  5
1089
100
AcDbEntity
  8
A-WALL-SHTH
100
AcDbVertex
100
AcDb2dVertex
 10
-5.118493
 20
43.708633
 30
0.0
 70
     8
  0
VERTEX
  5
108A
100
AcDbEntity
  8
A-WALL-SHTH
100
AcDbVertex
100
AcDb2dVertex
 10
-5.191435
 20
43.74384
 30
0.0
 70
     8
  0
VERTEX
  5
108B
100
AcDbEntity
  8
A-WALL-SHTH
100
AcDbVertex
100
AcDb2dVertex
 10
-5.27046
 20
43.771892
 30
0.0
 70
     8
  0
VERTEX
  5
108C
100
AcDbEntity
  8
A-WALL-SHTH
100
AcDbVertex
100
AcDb2dVertex
 10
-5.354634
 20
43.792819
 30
0.0
 70
     8
  0
VERTEX
  5
108D
100
AcDbEntity
  8
A-WALL-SHTH
100
AcDbVertex
100
AcDb2dVertex
 10
-5.44277
 20
43.806779
 30
0.0
 70
     8
  0
VERTEX
  5
108E
100
AcDbEntity
  8
A-WALL-SHTH
100
AcDbVertex
100
AcDb2dVertex
 10
-5.533678
 20
43.81393
 30
0.0
 70
     8
  0
VERTEX
  5
108F
100
AcDbEntity
  8
A-WALL-SHTH
100
AcDbVertex
100
AcDb2dVertex
 10
-5.626171
 20
43.814432
 30
0.0
 70
     8
  0
VERTEX
  5
1090
100
AcDbEntity
  8
A-WALL-SHTH
100
AcDbVertex
100
AcDb2dVertex
 10
-5.719059
 20
43.808441
 30
0.0
 70
     8
  0
VERTEX
  5
1091
100
AcDbEntity
  8
A-WALL-SHTH
100
AcDbVertex
100
AcDb2dVertex
 10
-5.811156
 20
43.796117
 30
0.0
 70
     8
  0
VERTEX
  5
1092
100
AcDbEntity
  8
A-WALL-SHTH
100
AcDbVertex
100
AcDb2dVertex
 10
-5.901272
 20
43.777618
 30
0.0
 70
     8
  0
VERTEX
  5
1093
100
AcDbEntity
  8
A-WALL-SHTH
100
AcDbVertex
100
AcDb2dVertex
 10
-5.988285
 20
43.753049
 30
0.0
 70
     8
  0
VERTEX
  5
1094
100
AcDbEntity
  8
A-WALL-SHTH
100
AcDbVertex
100
AcDb2dVertex
 10
-6.071337
 20
43.722306
 30
0.0
 70
     8
  0
VERTEX
  5
1095
100
AcDbEntity
  8
A-WALL-SHTH
100
AcDbVertex
100
AcDb2dVertex
 10
-6.149635
 20
43.685228
 30
0.0
 70
     8
  0
VERTEX
  5
1096
100
AcDbEntity
  8
A-WALL-SHTH
100
AcDbVertex
100
AcDb2dVertex
 10
-6.222388
 20
43.641659
 30
0.0
 70
     8
  0
VERTEX
  5
1097
100
AcDbEntity
  8
A-WALL-SHTH
100
AcDbVertex
100
AcDb2dVertex
 10
-6.288803
 20
43.59144
 30
0.0
 70
     8
  0
VERTEX
  5
1098
100
AcDbEntity
  8
A-WALL-SHTH
100
AcDbVertex
100
AcDb2dVertex
 10
-6.348088
 20
43.534412
 30
0.0
 70
     8
  0
VERTEX
  5
1099
100
AcDbEntity
  8
A-WALL-SHTH
100
AcDbVertex
100
AcDb2dVertex
 10
-6.399451
 20
43.470417
 30
0.0
 70
     8
  0
VERTEX
  5
109A
100
AcDbEntity
  8
A-WALL-SHTH
100
AcDbVertex
100
AcDb2dVertex
 10
-6.442099
 20
43.399297
 30
0.0
 70
     8
  0
VERTEX
  5
109B
100
AcDbEntity
  8
A-WALL-SHTH
100
AcDbVertex
100
AcDb2dVertex
 10
-6.475373
 20
43.321131
 30
0.0
 70
     8
  0
VERTEX
  5
109C
100
AcDbEntity
  8
A-WALL-SHTH
100
AcDbVertex
100
AcDb2dVertex
 10
-6.49914
 20
43.236948
 30
0.0
 70
     8
  0
VERTEX
  5
109D
100
AcDbEntity
  8
A-WALL-SHTH
100
AcDbVertex
100
AcDb2dVertex
 10
-6.5134
 20
43.148015
 30
0.0
 70
     8
  0
VERTEX
  5
109E
100
AcDbEntity
  8
A-WALL-SHTH
100
AcDbVertex
100
AcDb2dVertex
 10
-6.518153
 20
43.055599
 30
0.0
 70
     8
  0
VERTEX
  5
109F
100
AcDbEntity
  8
A-WALL-SHTH
100
AcDbVertex
100
AcDb2dVertex
 10
-6.5134
 20
42.960965
 30
0.0
 70
     8
  0
VERTEX
  5
10A0
100
AcDbEntity
  8
A-WALL-SHTH
100
AcDbVertex
100
AcDb2dVertex
 10
-6.49914
 20
42.865382
 30
0.0
 70
     8
  0
VERTEX
  5
10A1
100
AcDbEntity
  8
A-WALL-SHTH
100
AcDbVertex
100
AcDb2dVertex
 10
-6.475373
 20
42.770116
 30
0.0
 70
     8
  0
VERTEX
  5
10A2
100
AcDbEntity
  8
A-WALL-SHTH
100
AcDbVertex
100
AcDb2dVertex
 10
-6.442099
 20
42.676433
 30
0.0
 70
     8
  0
VERTEX
  5
10A3
100
AcDbEntity
  8
A-WALL-SHTH
100
AcDbVertex
100
AcDb2dVertex
 10
-6.399451
 20
42.585633
 30
0.0
 70
     8
  0
VERTEX
  5
10A4
100
AcDbEntity
  8
A-WALL-SHTH
100
AcDbVertex
100
AcDb2dVertex
 10
-6.348088
 20
42.499147
 30
0.0
 70
     8
  0
VERTEX
  5
10A5
100
AcDbEntity
  8
A-WALL-SHTH
100
AcDbVertex
100
AcDb2dVertex
 10
-6.288803
 20
42.418441
 30
0.0
 70
     8
  0
VERTEX
  5
10A6
100
AcDbEntity
  8
A-WALL-SHTH
100
AcDbVertex
100
AcDb2dVertex
 10
-6.222388
 20
42.344979
 30
0.0
 70
     8
  0
VERTEX
  5
10A7
100
AcDbEntity
  8
A-WALL-SHTH
100
AcDbVertex
100
AcDb2dVertex
 10
-6.149635
 20
42.280226
 30
0.0
 70
     8
  0
VERTEX
  5
10A8
100
AcDbEntity
  8
A-WALL-SHTH
100
AcDbVertex
100
AcDb2dVertex
 10
-6.071337
 20
42.225646
 30
0.0
 70
     8
  0
VERTEX
  5
10A9
100
AcDbEntity
  8
A-WALL-SHTH
100
AcDbVertex
100
AcDb2dVertex
 10
-5.988285
 20
42.182703
 30
0.0
 70
     8
  0
VERTEX
  5
10AA
100
AcDbEntity
  8
A-WALL-SHTH
100
AcDbVertex
100
AcDb2dVertex
 10
-5.901272
 20
42.152863
 30
0.0
 70
     8
  0
VERTEX
  5
10AB
100
AcDbEntity
  8
A-WALL-SHTH
100
AcDbVertex
100
AcDb2dVertex
 10
-5.811149
 20
42.137148
 30
0.0
 70
     8
  0
VERTEX
  5
10AC
100
AcDbEntity
  8
A-WALL-SHTH
100
AcDbVertex
100
AcDb2dVertex
 10
-5.719006
 20
42.134813
 30
0.0
 70
     8
  0
VERTEX
  5
10AD
100
AcDbEntity
  8
A-WALL-SHTH
100
AcDbVertex
100
AcDb2dVertex
 10
-5.625992
 20
42.144669
 30
0.0
 70
     8
  0
VERTEX
  5
10AE
100
AcDbEntity
  8
A-WALL-SHTH
100
AcDbVertex
100
AcDb2dVertex
 10
-5.533255
 20
42.16553
 30
0.0
 70
     8
  0
VERTEX
  5
10AF
100
AcDbEntity
  8
A-WALL-SHTH
100
AcDbVertex
100
AcDb2dVertex
 10
-5.441944
 20
42.196208
 30
0.0
 70
     8
  0
VERTEX
  5
10B0
100
AcDbEntity
  8
A-WALL-SHTH
100
AcDbVertex
100
AcDb2dVertex
 10
-5.353208
 20
42.235515
 30
0.0
 70
     8
  0
VERTEX
  5
10B1
100
AcDbEntity
  8
A-WALL-SHTH
100
AcDbVertex
100
AcDb2dVertex
 10
-5.268196
 20
42.282264
 30
0.0
 70
     8
  0
VERTEX
  5
10B2
100
AcDbEntity
  8
A-WALL-SHTH
100
AcDbVertex
100
AcDb2dVertex
 10
-5.188055
 20
42.335268
 30
0.0
 70
     8
  0
VERTEX
  5
10B3
100
AcDbEntity
  8
A-WALL-SHTH
100
AcDbVertex
100
AcDb2dVertex
 10
-5.113843
 20
42.393404
 30
0.0
 70
     8
  0
VERTEX
  5
10B4
100
AcDbEntity
  8
A-WALL-SHTH
100
AcDbVertex
100
AcDb2dVertex
 10
-5.046246
 20
42.455816
 30
0.0
 70
     8
  0
VERTEX
  5
10B5
100
AcDbEntity
  8
A-WALL-SHTH
100
AcDbVertex
100
AcDb2dVertex
 10
-4.985859
 20
42.521711
 30
0.0
 70
     8
  0
VERTEX
  5
10B6
100
AcDbEntity
  8
A-WALL-SHTH
100
AcDbVertex
100
AcDb2dVertex
 10
-4.933275
 20
42.590297
 30
0.0
 70
     8
  0
VERTEX
  5
10B7
100
AcDbEntity
  8
A-WALL-SHTH
100
AcDbVertex
100
AcDb2dVertex
 10
-4.889088
 20
42.660784
 30
0.0
 70
     8
  0
VERTEX
  5
10B8
100
AcDbEntity
  8
A-WALL-SHTH
100
AcDbVertex
100
AcDb2dVertex
 10
-4.853894
 20
42.732379
 30
0.0
 70
     8
  0
VERTEX
  5
10B9
100
AcDbEntity
  8
A-WALL-SHTH
100
AcDbVertex
100
AcDb2dVertex
 10
-4.828285
 20
42.80429
 30
0.0
 70
     8
  0
VERTEX
  5
10BA
100
AcDbEntity
  8
A-WALL-SHTH
100
AcDbVertex
100
AcDb2dVertex
 10
-4.812856
 20
42.875727
 30
0.0
 70
     8
  0
VERTEX
  5
10BB
100
AcDbEntity
  8
A-WALL-SHTH
100
AcDbVertex
100
AcDb2dVertex
 10
-4.80807
 20
42.945937
 30
0.0
 70
     8
  0
VERTEX
  5
10BC
100
AcDbEntity
  8
A-WALL-SHTH
100
AcDbVertex
100
AcDb2dVertex
 10
-4.81386
 20
43.014325
 30
0.0
 70
     8
  0
VERTEX
  5
10BD
100
AcDbEntity
  8
A-WALL-SHTH
100
AcDbVertex
100
AcDb2dVertex
 10
-4.830028
 20
43.080339
 30
0.0
 70
     8
  0
VERTEX
  5
10BE
100
AcDbEntity
  8
A-WALL-SHTH
100
AcDbVertex
100
AcDb2dVertex
 10
-4.856376
 20
43.143423
 30
0.0
 70
     8
  0
VERTEX
  5
10BF
100
AcDbEntity
  8
A-WALL-SHTH
100
AcDbVertex
100
AcDb2dVertex
 10
-4.892706
 20
43.203024
 30
0.0
 70
     8
  0
VERTEX
  5
10C0
100
AcDbEntity
  8
A-WALL-SHTH
100
AcDbVertex
100
AcDb2dVertex
 10
-4.93882
 20
43.258587
 30
0.0
 70
     8
  0
VERTEX
  5
10C1
100
AcDbEntity
  8
A-WALL-SHTH
100
AcDbVertex
100
AcDb2dVertex
 10
-4.994521
 20
43.309559
 30
0.0
 70
     8
  0
VERTEX
  5
10C2
100
AcDbEntity
  8
A-WALL-SHTH
100
AcDbVertex
100
AcDb2dVertex
 10
-5.059609
 20
43.355385
 30
0.0
 70
     8
  0
VERTEX
  5
10C3
100
AcDbEntity
  8
A-WALL-SHTH
100
AcDbVertex
100
AcDb2dVertex
 10
-5.13359
 20
43.395523
 30
0.0
 70
     8
  0
VERTEX
  5
10C4
100
AcDbEntity
  8
A-WALL-SHTH
100
AcDbVertex
100
AcDb2dVertex
 10
-5.21478
 20
43.429487
 30
0.0
 70
     8
  0
VERTEX
  5
10C5
100
AcDbEntity
  8
A-WALL-SHTH
100
AcDbVertex
100
AcDb2dVertex
 10
-5.301199
 20
43.4568
 30
0.0
 70
     8
  0
VERTEX
  5
10C6
100
AcDbEntity
  8
A-WALL-SHTH
100
AcDbVertex
100
AcDb2dVertex
 10
-5.390866
 20
43.476988
 30
0.0
 70
     8
  0
VERTEX
  5
10C7
100
AcDbEntity
  8
A-WALL-SHTH
100
AcDbVertex
100
AcDb2dVertex
 10
-5.4818
 20
43.489576
 30
0.0
 70
     8
  0
VERTEX
  5
10C8
100
AcDbEntity
  8
A-WALL-SHTH
100
AcDbVertex
100
AcDb2dVertex
 10
-5.572022
 20
43.494088
 30
0.0
 70
     8
  0
VERTEX
  5
10C9
100
AcDbEntity
  8
A-WALL-SHTH
100
AcDbVertex
100
AcDb2dVertex
 10
-5.65955
 20
43.490051
 30
0.0
 70
     8
  0
VERTEX
  5
10CA
100
AcDbEntity
  8
A-WALL-SHTH
100
AcDbVertex
100
AcDb2dVertex
 10
-5.742403
 20
43.476988
 30
0.0
 70
     8
  0
VERTEX
  5
10CB
100
AcDbEntity
  8
A-WALL-SHTH
100
AcDbVertex
100
AcDb2dVertex
 10
-5.818873
 20
43.454616
 30
0.0
 70
     8
  0
VERTEX
  5
10CC
100
AcDbEntity
  8
A-WALL-SHTH
100
AcDbVertex
100
AcDb2dVertex
 10
-5.888332
 20
43.423417
 30
0.0
 70
     8
  0
VERTEX
  5
10CD
100
AcDbEntity
  8
A-WALL-SHTH
100
AcDbVertex
100
AcDb2dVertex
 10
-5.950423
 20
43.384063
 30
0.0
 70
     8
  0
VERTEX
  5
10CE
100
AcDbEntity
  8
A-WALL-SHTH
100
AcDbVertex
100
AcDb2dVertex
 10
-6.004789
 20
43.337228
 30
0.0
 70
     8
  0
VERTEX
  5
10CF
100
AcDbEntity
  8
A-WALL-SHTH
100
AcDbVertex
100
AcDb2dVertex
 10
-6.051075
 20
43.283585
 30
0.0
 70
     8
  0
VERTEX
  5
10D0
100
AcDbEntity
  8
A-WALL-SHTH
100
AcDbVertex
100
AcDb2dVertex
 10
-6.088924
 20
43.223806
 30
0.0
 70
     8
  0
VERTEX
  5
10D1
100
AcDbEntity
  8
A-WALL-SHTH
100
AcDbVertex
100
AcDb2dVertex
 10
-6.117979
 20
43.158564
 30
0.0
 70
     8
  0
VERTEX
  5
10D2
100
AcDbEntity
  8
A-WALL-SHTH
100
AcDbVertex
100
AcDb2dVertex
 10
-6.137884
 20
43.088533
 30
0.0
 70
     8
  0
VERTEX
  5
10D3
100
AcDbEntity
  8
A-WALL-SHTH
100
AcDbVertex
100
AcDb2dVertex
 10
-6.14846
 20
43.01455
 30
0.0
 70
     8
  0
VERTEX
  5
10D4
100
AcDbEntity
  8
A-WALL-SHTH
100
AcDbVertex
100
AcDb2dVertex
 10
-6.150242
 20
42.938112
 30
0.0
 70
     8
  0
VERTEX
  5
10D5
100
AcDbEntity
  8
A-WALL-SHTH
100
AcDbVertex
100
AcDb2dVertex
 10
-6.143944
 20
42.860883
 30
0.0
 70
     8
  0
VERTEX
  5
10D6
100
AcDbEntity
  8
A-WALL-SHTH
100
AcDbVertex
100
AcDb2dVertex
 10
-6.130278
 20
42.784525
 30
0.0
 70
     8
  0
VERTEX
  5
10D7
100
AcDbEntity
  8
A-WALL-SHTH
100
AcDbVertex
100
AcDb2dVertex
 10
-6.109958
 20
42.7107
 30
0.0
 70
     8
  0
VERTEX
  5
10D8
100
AcDbEntity
  8
A-WALL-SHTH
100
AcDbVertex
100
AcDb2dVertex
 10
-6.083695
 20
42.641071
 30
0.0
 70
     8
  0
VERTEX
  5
10D9
100
AcDbEntity
  8
A-WALL-SHTH
100
AcDbVertex
100
AcDb2dVertex
 10
-6.052204
 20
42.5773
 30
0.0
 70
     8
  0
VERTEX
  5
10DA
100
AcDbEntity
  8
A-WALL-SHTH
100
AcDbVertex
100
AcDb2dVertex
 10
-6.016197
 20
42.521051
 30
0.0
 70
     8
  0
VERTEX
  5
10DB
100
AcDbEntity
  8
A-WALL-SHTH
100
AcDbVertex
100
AcDb2dVertex
 10
-5.976296
 20
42.473682
 30
0.0
 70
     8
  0
VERTEX
  5
10DC
100
AcDbEntity
  8
A-WALL-SHTH
100
AcDbVertex
100
AcDb2dVertex
 10
-5.932749
 20
42.435337
 30
0.0
 70
     8
  0
VERTEX
  5
10DD
100
AcDbEntity
  8
A-WALL-SHTH
100
AcDbVertex
100
AcDb2dVertex
 10
-5.885718
 20
42.40586
 30
0.0
 70
     8
  0
VERTEX
  5
10DE
100
AcDbEntity
  8
A-WALL-SHTH
100
AcDbVertex
100
AcDb2dVertex
 10
-5.835358
 20
42.385092
 30
0.0
 70
     8
  0
VERTEX
  5
10DF
100
AcDbEntity
  8
A-WALL-SHTH
100
AcDbVertex
100
AcDb2dVertex
 10
-5.78183
 20
42.372873
 30
0.0
 70
     8
  0
VERTEX
  5
10E0
100
AcDbEntity
  8
A-WALL-SHTH
100
AcDbVertex
100
AcDb2dVertex
 10
-5.725291
 20
42.369047
 30
0.0
 70
     8
  0
VERTEX
  5
10E1
100
AcDbEntity
  8
A-WALL-SHTH
100
AcDbVertex
100
AcDb2dVertex
 10
-5.665901
 20
42.373454
 30
0.0
 70
     8
  0
VERTEX
  5
10E2
100
AcDbEntity
  8
A-WALL-SHTH
100
AcDbVertex
100
AcDb2dVertex
 10
-5.603816
 20
42.385936
 30
0.0
 70
     8
  0
VERTEX
  5
10E3
100
AcDbEntity
  8
A-WALL-SHTH
100
AcDbVertex
100
AcDb2dVertex
 10
-5.539415
 20
42.40625
 30
0.0
 70
     8
  0
VERTEX
  5
10E4
100
AcDbEntity
  8
A-WALL-SHTH
100
AcDbVertex
100
AcDb2dVertex
 10
-5.473944
 20
42.433807
 30
0.0
 70
     8
  0
VERTEX
  5
10E5
100
AcDbEntity
  8
A-WALL-SHTH
100
AcDbVertex
100
AcDb2dVertex
 10
-5.408869
 20
42.467935
 30
0.0
 70
     8
  0
VERTEX
  5
10E6
100
AcDbEntity
  8
A-WALL-SHTH
100
AcDbVertex
100
AcDb2dVertex
 10
-5.345656
 20
42.507962
 30
0.0
 70
     8
  0
VERTEX
  5
10E7
100
AcDbEntity
  8
A-WALL-SHTH
100
AcDbVertex
100
AcDb2dVertex
 10
-5.28577
 20
42.553213
 30
0.0
 70
     8
  0
VERTEX
  5
10E8
100
AcDbEntity
  8
A-WALL-SHTH
100
AcDbVertex
100
AcDb2dVertex
 10
-5.230677
 20
42.603017
 30
0.0
 70
     8
  0
VERTEX
  5
10E9
100
AcDbEntity
  8
A-WALL-SHTH
100
AcDbVertex
100
AcDb2dVertex
 10
-5.181843
 20
42.6567
 30
0.0
 70
     8
  0
VERTEX
  5
10EA
100
AcDbEntity
  8
A-WALL-SHTH
100
AcDbVertex
100
AcDb2dVertex
 10
-5.140733
 20
42.713589
 30
0.0
 70
     8
  0
VERTEX
  5
10EB
100
AcDbEntity
  8
A-WALL-SHTH
100
AcDbVertex
100
AcDb2dVertex
 10
-5.108588
 20
42.77294
 30
0.0
 70
     8
  0
VERTEX
  5
10EC
100
AcDbEntity
  8
A-WALL-SHTH
100
AcDbVertex
100
AcDb2dVertex
 10
-5.085752
 20
42.833715
 30
0.0
 70
     8
  0
VERTEX
  5
10ED
100
AcDbEntity
  8
A-WALL-SHTH
100
AcDbVertex
100
AcDb2dVertex
 10
-5.072344
 20
42.894807
 30
0.0
 70
     8
  0
VERTEX
  5
10EE
100
AcDbEntity
  8
A-WALL-SHTH
100
AcDbVertex
100
AcDb2dVertex
 10
-5.068482
 20
42.955107
 30
0.0
 70
     8
  0
VERTEX
  5
10EF
100
AcDbEntity
  8
A-WALL-SHTH
100
AcDbVertex
100
AcDb2dVertex
 10
-5.074285
 20
43.013507
 30
0.0
 70
     8
  0
VERTEX
  5
10F0
100
AcDbEntity
  8
A-WALL-SHTH
100
AcDbVertex
100
AcDb2dVertex
 10
-5.089872
 20
43.068899
 30
0.0
 70
     8
  0
VERTEX
  5
10F1
100
AcDbEntity
  8
A-WALL-SHTH
100
AcDbVertex
100
AcDb2dVertex
 10
-5.115362
 20
43.120174
 30
0.0
 70
     8
  0
VERTEX
  5
10F2
100
AcDbEntity
  8
A-WALL-SHTH
100
AcDbVertex
100
AcDb2dVertex
 10
-5.150874
 20
43.166224
 30
0.0
 70
     8
  0
VERTEX
  5
10F3
100
AcDbEntity
  8
A-WALL-SHTH
100
AcDbVertex
100
AcDb2dVertex
 10
-5.196176
 20
43.206046
 30
0.0
 70
     8
  0
VERTEX
  5
10F4
100
AcDbEntity
  8
A-WALL-SHTH
100
AcDbVertex
100
AcDb2dVertex
 10
-5.249638
 20
43.239059
 30
0.0
 70
     8
  0
VERTEX
  5
10F5
100
AcDbEntity
  8
A-WALL-SHTH
100
AcDbVertex
100
AcDb2dVertex
 10
-5.309279
 20
43.264789
 30
0.0
 70
     8
  0
VERTEX
  5
10F6
100
AcDbEntity
  8
A-WALL-SHTH
100
AcDbVertex
100
AcDb2dVertex
 10
-5.37312
 20
43.28276
 30
0.0
 70
     8
  0
VERTEX
  5
10F7
100
AcDbEntity
  8
A-WALL-SHTH
100
AcDbVertex
100
AcDb2dVertex
 10
-5.439178
 20
43.292498
 30
0.0
 70
     8
  0
VERTEX
  5
10F8
100
AcDbEntity
  8
A-WALL-SHTH
100
AcDbVertex
100
AcDb2dVertex
 10
-5.505475
 20
43.293527
 30
0.0
 70
     8
  0
VERTEX
  5
10F9
100
AcDbEntity
  8
A-WALL-SHTH
100
AcDbVertex
100
AcDb2dVertex
 10
-5.570028
 20
43.285373
 30
0.0
 70
     8
  0
VERTEX
  5
10FA
100
AcDbEntity
  8
A-WALL-SHTH
100
AcDbVertex
100
AcDb2dVertex
 10
-5.630858
 20
43.26756
 30
0.0
 70
     8
  0
VERTEX
  5
10FB
100
AcDbEntity
  8
A-WALL-SHTH
100
AcDbVertex
100
AcDb2dVertex
 10
-5.686235
 20
43.239963
 30
0.0
 70
     8
  0
VERTEX
  5
10FC
100
AcDbEntity
  8
A-WALL-SHTH
100
AcDbVertex
100
AcDb2dVertex
 10
-5.735432
 20
43.203856
 30
0.0
 70
     8
  0
VERTEX
  5
10FD
100
AcDbEntity
  8
A-WALL-SHTH
100
AcDbVertex
100
AcDb2dVertex
 10
-5.777975
 20
43.16086
 30
0.0
 70
     8
  0
VERTEX
  5
10FE
100
AcDbEntity
  8
A-WALL-SHTH
100
AcDbVertex
100
AcDb2dVertex
 10
-5.813387
 20
43.1126
 30
0.0
 70
     8
  0
VERTEX
  5
10FF
100
AcDbEntity
  8
A-WALL-SHTH
100
AcDbVertex
100
AcDb2dVertex
 10
-5.841194
 20
43.060699
 30
0.0
 70
     8
  0
VERTEX
  5
1100
100
AcDbEntity
  8
A-WALL-SHTH
100
AcDbVertex
100
AcDb2dVertex
 10
-5.860921
 20
43.006778
 30
0.0
 70
     8
  0
VERTEX
  5
1101
100
AcDbEntity
  8
A-WALL-SHTH
100
AcDbVertex
100
AcDb2dVertex
 10
-5.872091
 20
42.952462
 30
0.0
 70
     8
  0
VERTEX
  5
1102
100
AcDbEntity
  8
A-WALL-SHTH
100
AcDbVertex
100
AcDb2dVertex
 10
-5.87423
 20
42.899372
 30
0.0
 70
     8
  0
VERTEX
  5
1103
100
AcDbEntity
  8
A-WALL-SHTH
100
AcDbVertex
100
AcDb2dVertex
 10
-5.867097
 20
42.849087
 30
0.0
 70
     8
  0
VERTEX
  5
1104
100
AcDbEntity
  8
A-WALL-SHTH
100
AcDbVertex
100
AcDb2dVertex
 10
-5.851388
 20
42.802997
 30
0.0
 70
     8
  0
VERTEX
  5
1105
100
AcDbEntity
  8
A-WALL-SHTH
100
AcDbVertex
100
AcDb2dVertex
 10
-5.828033
 20
42.76245
 30
0.0
 70
     8
  0
VERTEX
  5
1106
100
AcDbEntity
  8
A-WALL-SHTH
100
AcDbVertex
100
AcDb2dVertex
 10
-5.797965
 20
42.72879
 30
0.0
 70
     8
  0
VERTEX
  5
1107
100
AcDbEntity
  8
A-WALL-SHTH
100
AcDbVertex
100
AcDb2dVertex
 10
-5.762113
 20
42.703363
 30
0.0
 70
     8
  0
VERTEX
  5
1108
100
AcDbEntity
  8
A-WALL-SHTH
100
AcDbVertex
100
AcDb2dVertex
 10
-5.721409
 20
42.687517
 30
0.0
 70
     8
  0
VERTEX
  5
1109
100
AcDbEntity
  8
A-WALL-SHTH
100
AcDbVertex
100
AcDb2dVertex
 10
-5.676784
 20
42.682595
 30
0.0
 70
     8
  0
VERTEX
  5
110A
100
AcDbEntity
  8
A-WALL-SHTH
100
AcDbVertex
100
AcDb2dVertex
 10
-5.629168
 20
42.689944
 30
0.0
 70
     8
  0
VERTEX
  5
110B
100
AcDbEntity
  8
A-WALL-SHTH
100
AcDbVertex
100
AcDb2dVertex
 10
-5.580073
 20
42.710165
 30
0.0
 70
     8
  0
VERTEX
  5
110C
100
AcDbEntity
  8
A-WALL-SHTH
100
AcDbVertex
100
AcDb2dVertex
 10
-5.533334
 20
42.740876
 30
0.0
 70
     8
  0
VERTEX
  5
110D
100
AcDbEntity
  8
A-WALL-SHTH
100
AcDbVertex
100
AcDb2dVertex
 10
-5.49337
 20
42.77895
 30
0.0
 70
     8
  0
VERTEX
  5
110E
100
AcDbEntity
  8
A-WALL-SHTH
100
AcDbVertex
100
AcDb2dVertex
 10
-5.464595
 20
42.821259
 30
0.0
 70
     8
  0
VERTEX
  5
110F
100
AcDbEntity
  8
A-WALL-SHTH
100
AcDbVertex
100
AcDb2dVertex
 10
-5.451428
 20
42.864676
 30
0.0
 70
     8
  0
VERTEX
  5
1110
100
AcDbEntity
  8
A-WALL-SHTH
100
AcDbVertex
100
AcDb2dVertex
 10
-5.458284
 20
42.906075
 30
0.0
 70
     8
  0
VERTEX
  5
1111
100
AcDbEntity
  8
A-WALL-SHTH
100
AcDbVertex
100
AcDb2dVertex
 10
-5.48958
 20
42.942328
 30
0.0
 70
     8
  0
VERTEX
  5
1112
100
AcDbEntity
  8
A-WALL-SHTH
100
AcDbVertex
100
AcDb2dVertex
 10
-5.549734
 20
42.970307
 30
0.0
 70
     8
  0
VERTEX
  5
1113
100
AcDbEntity
  8
A-WALL-SHTH
100
AcDbVertex
100
AcDb2dVertex
 10
-4.6
 20
42.909506
 30
0.0
 70
    16
  0
VERTEX
  5
1114
100
AcDbEntity
  8
A-WALL-SHTH
100
AcDbVertex
100
AcDb2dVertex
 10
-4.718211
 20
43.335117
 30
0.0
 70
    16
  0
VERTEX
  5
1115
100
AcDbEntity
  8
A-WALL-SHTH
100
AcDbVertex
100
AcDb2dVertex
 10
-5.123832
 20
43.821531
 30
0.0
 70
    16
  0
VERTEX
  5
1116
100
AcDbEntity
  8
A-WALL-SHTH
100
AcDbVertex
100
AcDb2dVertex
 10
-5.935073
 20
43.841798
 30
0.0
 70
    16
  0
VERTEX
  5
1117
100
AcDbEntity
  8
A-WALL-SHTH
100
AcDbVertex
100
AcDb2dVertex
 10
-6.543505
 20
43.476988
 30
0.0
 70
    16
  0
VERTEX
  5
1118
100
AcDbEntity
  8
A-WALL-SHTH
100
AcDbVertex
100
AcDb2dVertex
 10
-6.543505
 20
42.646032
 30
0.0
 70
    16
  0
VERTEX
  5
1119
100
AcDbEntity
  8
A-WALL-SHTH
100
AcDbVertex
100
AcDb2dVertex
 10
-5.935073
 20
41.997481
 30
0.0
 70
    16
  0
VERTEX
  5
111A
100
AcDbEntity
  8
A-WALL-SHTH
100
AcDbVertex
100
AcDb2dVertex
 10
-5.123832
 20
42.281222
 30
0.0
 70
    16
  0
VERTEX
  5
111B
100
AcDbEntity
  8
A-WALL-SHTH
100
AcDbVertex
100
AcDb2dVertex
 10
-4.69793
 20
42.889239
 30
0.0
 70
    16
  0
VERTEX
  5
111C
100
AcDbEntity
  8
A-WALL-SHTH
100
AcDbVertex
100
AcDb2dVertex
 10
-4.961584
 20
43.416186
 30
0.0
 70
    16
  0
VERTEX
  5
111D
100
AcDbEntity
  8
A-WALL-SHTH
100
AcDbVertex
100
AcDb2dVertex
 10
-5.813387
 20
43.578324
 30
0.0
 70
    16
  0
VERTEX
  5
111E
100
AcDbEntity
  8
A-WALL-SHTH
100
AcDbVertex
100
AcDb2dVertex
 10
-6.239289
 20
43.132445
 30
0.0
 70
    16
  0
VERTEX
  5
111F
100
AcDbEntity
  8
A-WALL-SHTH
100
AcDbVertex
100
AcDb2dVertex
 10
-6.056759
 20
42.423093
 30
0.0
 70
    16
  0
VERTEX
  5
1120
100
AcDbEntity
  8
A-WALL-SHTH
100
AcDbVertex
100
AcDb2dVertex
 10
-5.630858
 20
42.301489
 30
0.0
 70
    16
  0
VERTEX
  5
1121
100
AcDbEntity
  8
A-WALL-SHTH
100
AcDbVertex
100
AcDb2dVertex
 10
-5.042708
 20
42.686566
 30
0.0
 70
    16
  0
VERTEX
  5
1122
100
AcDbEntity
  8
A-WALL-SHTH
100
AcDbVertex
100
AcDb2dVertex
 10
-5.042708
 20
43.233781
 30
0.0
 70
    16
  0
VERTEX
  5
1123
100
AcDbEntity
  8
A-WALL-SHTH
100
AcDbVertex
100
AcDb2dVertex
 10
-5.691701
 20
43.375652
 30
0.0
 70
    16
  0
VERTEX
  5
1124
100
AcDbEntity
  8
A-WALL-SHTH
100
AcDbVertex
100
AcDb2dVertex
 10
-5.975636
 20
42.868972
 30
0.0
 70
    16
  0
VERTEX
  5
1125
100
AcDbEntity
  8
A-WALL-SHTH
100
AcDbVertex
100
AcDb2dVertex
 10
-5.651139
 20
42.544696
 30
0.0
 70
    16
  0
VERTEX
  5
1126
100
AcDbEntity
  8
A-WALL-SHTH
100
AcDbVertex
100
AcDb2dVertex
 10
-5.346923
 20
42.909506
 30
0.0
 70
    16
  0
VERTEX
  5
1127
100
AcDbEntity
  8
A-WALL-SHTH
100
AcDbVertex
100
AcDb2dVertex
 10
-5.549734
 20
42.970307
 30
0.0
 70
    16
  0
SEQEND
  5
1128
100
AcDbEntity
  8
A-WALL-SHTH
  0
LINE
  5
1129
100
AcDbEntity
  8
A-WALL-STUD
100
AcDbLine
 10
-4.5
 20
40.893979
 30
0.0
 11
-3.5
 21
37.393979
 31
0.0
  0
LINE
  5
112A
100
AcDbEntity
  8
A-WALL-STUD
100
AcDbLine
 10
-3.5
 20
40.893979
 30
0.0
 11
-4.5
 21
37.393979
 31
0.0
  0
LINE
  5
112B
100
AcDbEntity
  8
A-WALL-STUD
100
AcDbLine
 10
-4.5
 20
40.893979
 30
0.0
 11
-4.5
 21
37.393979
 31
0.0
  0
LINE
  5
112C
100
AcDbEntity
  8
A-WALL-SHKE
100
AcDbLine
 10
-4.607049
 20
40.779476
 30
0.0
 11
-4.799948
 21
36.033394
 31
0.0
  0
LINE
  5
112D
100
AcDbEntity
  8
A-WALL-SHKE
100
AcDbLine
 10
-5.055873
 20
42.04875
 30
0.0
 11
-5.345222
 21
34.929627
 31
0.0
  0
LINE
  5
112E
100
AcDbEntity
  8
A-WALL-SHKE
100
AcDbLine
 10
-4.806079
 20
42.038597
 30
0.0
 11
-5.095428
 21
34.919475
 31
0.0
  0
LINE
  5
112F
100
AcDbEntity
  8
A-WALL-STUD
100
AcDbLine
 10
-4.5
 20
37.393979
 30
0.0
 11
-3.5
 21
37.393979
 31
0.0
  0
LINE
  5
1130
100
AcDbEntity
  8
A-WALL-SHKE
100
AcDbLine
 10
-4.85071
 20
34.784425
 30
0.0
 11
-4.600917
 21
34.774273
 31
0.0
  0
LINE
  5
1131
100
AcDbEntity
  8
A-WALL-SHKE
100
AcDbLine
 10
-5.345222
 20
34.929627
 30
0.0
 11
-5.095428
 21
34.919475
 31
0.0
  0
LINE
  5
1132
100
AcDbEntity
  8
A-WALL-SHKE
100
AcDbLine
 10
-5.049741
 20
36.043547
 30
0.0
 11
-4.799948
 21
36.033394
 31
0.0
  0
LINE
  5
1133
100
AcDbEntity
  8
A-WALL-STUD
100
AcDbLine
 10
-4.5
 20
40.893979
 30
0.0
 11
-3.5
 21
40.893979
 31
0.0
  0
LINE
  5
1134
100
AcDbEntity
  8
A-WALL-SHKE
100
AcDbLine
 10
-4.856842
 20
40.789628
 30
0.0
 11
-4.607049
 21
40.779476
 31
0.0
  0
LINE
  5
1135
100
AcDbEntity
  8
A-WALL-SHKE
100
AcDbLine
 10
-5.055873
 20
42.04875
 30
0.0
 11
-4.806079
 21
42.038597
 31
0.0
  0
LINE
  5
1136
100
AcDbEntity
  8
A-WALL-STUD
100
AcDbLine
 10
-3.5
 20
41.893979
 30
0.0
 11
0.0
 21
41.893979
 31
0.0
  0
ENDBLK
  5
1138
100
AcDbEntity
  8
0
100
AcDbBlockEnd
  0
BLOCK
  5
1622
100
AcDbEntity
  8
0
100
AcDbBlockBegin
  2
WOOD
 70
     0
 10
0.0
 20
0.0
 30
0.0
  3
WOOD
  1

  0
POLYLINE
  5
135C
100
AcDbEntity
  8
A-HATCH
100
AcDb2dPolyline
 66
     1
 10
0.0
 20
0.0
 30
0.0
 70
     4
 75
     6
  0
VERTEX
  5
135D
100
AcDbEntity
  8
A-HATCH
100
AcDbVertex
100
AcDb2dVertex
 10
-1.668981
 20
-2.332678
 30
0.0
 70
    16
  0
VERTEX
  5
135E
100
AcDbEntity
  8
A-HATCH
100
AcDbVertex
100
AcDb2dVertex
 10
-1.668981
 20
-2.332678
 30
0.0
 70
     8
  0
VERTEX
  5
135F
100
AcDbEntity
  8
A-HATCH
100
AcDbVertex
100
AcDb2dVertex
 10
-1.935223
 20
-2.20212
 30
0.0
 70
     8
  0
VERTEX
  5
1360
100
AcDbEntity
  8
A-HATCH
100
AcDbVertex
100
AcDb2dVertex
 10
-2.15249
 20
-2.110265
 30
0.0
 70
     8
  0
VERTEX
  5
1361
100
AcDbEntity
  8
A-HATCH
100
AcDbVertex
100
AcDb2dVertex
 10
-2.346647
 20
-2.05845
 30
0.0
 70
     8
  0
VERTEX
  5
1362
100
AcDbEntity
  8
A-HATCH
100
AcDbVertex
100
AcDb2dVertex
 10
-2.543556
 20
-2.048012
 30
0.0
 70
     8
  0
VERTEX
  5
1363
100
AcDbEntity
  8
A-HATCH
100
AcDbVertex
100
AcDb2dVertex
 10
-2.76908
 20
-2.080289
 30
0.0
 70
     8
  0
VERTEX
  5
1364
100
AcDbEntity
  8
A-HATCH
100
AcDbVertex
100
AcDb2dVertex
 10
-3.049082
 20
-2.156617
 30
0.0
 70
     8
  0
VERTEX
  5
1365
100
AcDbEntity
  8
A-HATCH
100
AcDbVertex
100
AcDb2dVertex
 10
-3.409427
 20
-2.278334
 30
0.0
 70
     8
  0
VERTEX
  5
1366
100
AcDbEntity
  8
A-HATCH
100
AcDbVertex
100
AcDb2dVertex
 10
-3.875976
 20
-2.446776
 30
0.0
 70
     8
  0
VERTEX
  5
1367
100
AcDbEntity
  8
A-HATCH
100
AcDbVertex
100
AcDb2dVertex
 10
-2.467248
 20
-1.934108
 30
0.0
 70
    16
  0
VERTEX
  5
1368
100
AcDbEntity
  8
A-HATCH
100
AcDbVertex
100
AcDb2dVertex
 10
-3.875976
 20
-2.446776
 30
0.0
 70
    16
  0
SEQEND
  5
1369
100
AcDbEntity
  8
A-HATCH
  0
POLYLINE
  5
136A
100
AcDbEntity
  8
A-HATCH
100
AcDb2dPolyline
 66
     1
 10
0.0
 20
0.0
 30
0.0
 70
     4
 75
     6
  0
VERTEX
  5
136B
100
AcDbEntity
  8
A-HATCH
100
AcDbVertex
100
AcDb2dVertex
 10
-1.668981
 20
-1.668394
 30
0.0
 70
    16
  0
VERTEX
  5
136C
100
AcDbEntity
  8
A-HATCH
100
AcDbVertex
100
AcDb2dVertex
 10
-1.668981
 20
-1.668394
 30
0.0
 70
     8
  0
VERTEX
  5
136D
100
AcDbEntity
  8
A-HATCH
100
AcDbVertex
100
AcDb2dVertex
 10
-2.110431
 20
-1.535051
 30
0.0
 70
     8
  0
VERTEX
  5
136E
100
AcDbEntity
  8
A-HATCH
100
AcDbVertex
100
AcDb2dVertex
 10
-2.494727
 20
-1.473525
 30
0.0
 70
     8
  0
VERTEX
  5
136F
100
AcDbEntity
  8
A-HATCH
100
AcDbVertex
100
AcDb2dVertex
 10
-2.833324
 20
-1.468446
 30
0.0
 70
     8
  0
VERTEX
  5
1370
100
AcDbEntity
  8
A-HATCH
100
AcDbVertex
100
AcDb2dVertex
 10
-3.137673
 20
-1.504443
 30
0.0
 70
     8
  0
VERTEX
  5
1371
100
AcDbEntity
  8
A-HATCH
100
AcDbVertex
100
AcDb2dVertex
 10
-3.419227
 20
-1.566146
 30
0.0
 70
     8
  0
VERTEX
  5
1372
100
AcDbEntity
  8
A-HATCH
100
AcDbVertex
100
AcDb2dVertex
 10
-3.689439
 20
-1.638184
 30
0.0
 70
     8
  0
VERTEX
  5
1373
100
AcDbEntity
  8
A-HATCH
100
AcDbVertex
100
AcDb2dVertex
 10
-3.959761
 20
-1.705188
 30
0.0
 70
     8
  0
VERTEX
  5
1374
100
AcDbEntity
  8
A-HATCH
100
AcDbVertex
100
AcDb2dVertex
 10
-4.241646
 20
-1.751786
 30
0.0
 70
     8
  0
VERTEX
  5
1375
100
AcDbEntity
  8
A-HATCH
100
AcDbVertex
100
AcDb2dVertex
 10
-2.932565
 20
-1.203395
 30
0.0
 70
    16
  0
VERTEX
  5
1376
100
AcDbEntity
  8
A-HATCH
100
AcDbVertex
100
AcDb2dVertex
 10
-3.464354
 20
-1.668394
 30
0.0
 70
    16
  0
VERTEX
  5
1377
100
AcDbEntity
  8
A-HATCH
100
AcDbVertex
100
AcDb2dVertex
 10
-4.241646
 20
-1.751786
 30
0.0
 70
    16
  0
SEQEND
  5
1378
100
AcDbEntity
  8
A-HATCH
  0
POLYLINE
  5
1379
100
AcDbEntity
  8
A-HATCH
100
AcDb2dPolyline
 66
     1
 10
0.0
 20
0.0
 30
0.0
 70
     4
 75
     6
  0
VERTEX
  5
137A
100
AcDbEntity
  8
A-HATCH
100
AcDbVertex
100
AcDb2dVertex
 10
-1.668981
 20
-0.007683
 30
0.0
 70
    16
  0
VERTEX
  5
137B
100
AcDbEntity
  8
A-HATCH
100
AcDbVertex
100
AcDb2dVertex
 10
-1.668981
 20
-0.007683
 30
0.0
 70
     8
  0
VERTEX
  5
137C
100
AcDbEntity
  8
A-HATCH
100
AcDbVertex
100
AcDb2dVertex
 10
-2.365893
 20
0.114796
 30
0.0
 70
     8
  0
VERTEX
  5
137D
100
AcDbEntity
  8
A-HATCH
100
AcDbVertex
100
AcDb2dVertex
 10
-2.967983
 20
0.187459
 30
0.0
 70
     8
  0
VERTEX
  5
137E
100
AcDbEntity
  8
A-HATCH
100
AcDbVertex
100
AcDb2dVertex
 10
-3.486426
 20
0.216542
 30
0.0
 70
     8
  0
VERTEX
  5
137F
100
AcDbEntity
  8
A-HATCH
100
AcDbVertex
100
AcDb2dVertex
 10
-3.932399
 20
0.208277
 30
0.0
 70
     8
  0
VERTEX
  5
1380
100
AcDbEntity
  8
A-HATCH
100
AcDbVertex
100
AcDb2dVertex
 10
-4.317075
 20
0.1689
 30
0.0
 70
     8
  0
VERTEX
  5
1381
100
AcDbEntity
  8
A-HATCH
100
AcDbVertex
100
AcDb2dVertex
 10
-4.651631
 20
0.104643
 30
0.0
 70
     8
  0
VERTEX
  5
1382
100
AcDbEntity
  8
A-HATCH
100
AcDbVertex
100
AcDb2dVertex
 10
-4.947242
 20
0.021742
 30
0.0
 70
     8
  0
VERTEX
  5
1383
100
AcDbEntity
  8
A-HATCH
100
AcDbVertex
100
AcDb2dVertex
 10
-5.215082
 20
-0.073571
 30
0.0
 70
     8
  0
VERTEX
  5
1384
100
AcDbEntity
  8
A-HATCH
100
AcDbVertex
100
AcDb2dVertex
 10
-3.663775
 20
0.390888
 30
0.0
 70
    16
  0
VERTEX
  5
1385
100
AcDbEntity
  8
A-HATCH
100
AcDbVertex
100
AcDb2dVertex
 10
-4.527934
 20
0.191602
 30
0.0
 70
    16
  0
VERTEX
  5
1386
100
AcDbEntity
  8
A-HATCH
100
AcDbVertex
100
AcDb2dVertex
 10
-5.215082
 20
-0.073571
 30
0.0
 70
    16
  0
SEQEND
  5
1387
100
AcDbEntity
  8
A-HATCH
  0
POLYLINE
  5
1388
100
AcDbEntity
  8
A-HATCH
100
AcDb2dPolyline
 66
     1
 10
0.0
 20
0.0
 30
0.0
 70
     4
 75
     6
  0
VERTEX
  5
1389
100
AcDbEntity
  8
A-HATCH
100
AcDbVertex
100
AcDb2dVertex
 10
-5.838544
 20
0.893958
 30
0.0
  0
VERTEX
  5
138A
100
AcDbEntity
  8
A-HATCH
100
AcDbVertex
100
AcDb2dVertex
 10
-5.478386
 20
1.053301
 30
0.0
  0
VERTEX
  5
138B
100
AcDbEntity
  8
A-HATCH
100
AcDbVertex
100
AcDb2dVertex
 10
-5.037224
 20
1.126244
 30
0.0
  0
VERTEX
  5
138C
100
AcDbEntity
  8
A-HATCH
100
AcDbVertex
100
AcDb2dVertex
 10
-4.523069
 20
1.134917
 30
0.0
  0
VERTEX
  5
138D
100
AcDbEntity
  8
A-HATCH
100
AcDbVertex
100
AcDb2dVertex
 10
-3.943931
 20
1.101449
 30
0.0
  0
VERTEX
  5
138E
100
AcDbEntity
  8
A-HATCH
100
AcDbVertex
100
AcDb2dVertex
 10
-3.307821
 20
1.047968
 30
0.0
  0
VERTEX
  5
138F
100
AcDbEntity
  8
A-HATCH
100
AcDbVertex
100
AcDb2dVertex
 10
-2.622752
 20
0.996604
 30
0.0
  0
VERTEX
  5
1390
100
AcDbEntity
  8
A-HATCH
100
AcDbVertex
100
AcDb2dVertex
 10
-1.896732
 20
0.969486
 30
0.0
  0
VERTEX
  5
1391
100
AcDbEntity
  8
A-HATCH
100
AcDbVertex
100
AcDb2dVertex
 10
-1.668981
 20
0.975265
 30
0.0
  0
SEQEND
  5
1392
100
AcDbEntity
  8
A-HATCH
  0
POLYLINE
  5
1393
100
AcDbEntity
  8
A-HATCH
100
AcDb2dPolyline
 66
     1
 10
0.0
 20
0.0
 30
0.0
 70
     4
 75
     6
  0
VERTEX
  5
1394
100
AcDbEntity
  8
A-HATCH
100
AcDbVertex
100
AcDb2dVertex
 10
-1.668981
 20
4.708737
 30
0.0
 70
    16
  0
VERTEX
  5
1395
100
AcDbEntity
  8
A-HATCH
100
AcDbVertex
100
AcDb2dVertex
 10
-1.668981
 20
4.708737
 30
0.0
 70
     8
  0
VERTEX
  5
1396
100
AcDbEntity
  8
A-HATCH
100
AcDbVertex
100
AcDb2dVertex
 10
-2.298261
 20
4.37427
 30
0.0
 70
     8
  0
VERTEX
  5
1397
100
AcDbEntity
  8
A-HATCH
100
AcDbVertex
100
AcDb2dVertex
 10
-2.844466
 20
4.156637
 30
0.0
 70
     8
  0
VERTEX
  5
1398
100
AcDbEntity
  8
A-HATCH
100
AcDbVertex
100
AcDb2dVertex
 10
-3.314938
 20
4.038776
 30
0.0
 70
     8
  0
VERTEX
  5
1399
100
AcDbEntity
  8
A-HATCH
100
AcDbVertex
100
AcDb2dVertex
 10
-3.71702
 20
4.003626
 30
0.0
 70
     8
  0
VERTEX
  5
139A
100
AcDbEntity
  8
A-HATCH
100
AcDbVertex
100
AcDb2dVertex
 10
-4.058054
 20
4.034127
 30
0.0
 70
     8
  0
VERTEX
  5
139B
100
AcDbEntity
  8
A-HATCH
100
AcDbVertex
100
AcDb2dVertex
 10
-4.345382
 20
4.113216
 30
0.0
 70
     8
  0
VERTEX
  5
139C
100
AcDbEntity
  8
A-HATCH
100
AcDbVertex
100
AcDb2dVertex
 10
-4.586346
 20
4.223833
 30
0.0
 70
     8
  0
VERTEX
  5
139D
100
AcDbEntity
  8
A-HATCH
100
AcDbVertex
100
AcDb2dVertex
 10
-4.788289
 20
4.348916
 30
0.0
 70
     8
  0
VERTEX
  5
139E
100
AcDbEntity
  8
A-HATCH
100
AcDbVertex
100
AcDb2dVertex
 10
-4.958228
 20
4.474042
 30
0.0
 70
     8
  0
VERTEX
  5
139F
100
AcDbEntity
  8
A-HATCH
100
AcDbVertex
100
AcDb2dVertex
 10
-5.101876
 20
4.595341
 30
0.0
 70
     8
  0
VERTEX
  5
13A0
100
AcDbEntity
  8
A-HATCH
100
AcDbVertex
100
AcDb2dVertex
 10
-5.224621
 20
4.71158
 30
0.0
 70
     8
  0
VERTEX
  5
13A1
100
AcDbEntity
  8
A-HATCH
100
AcDbVertex
100
AcDb2dVertex
 10
-5.331851
 20
4.821526
 30
0.0
 70
     8
  0
VERTEX
  5
13A2
100
AcDbEntity
  8
A-HATCH
100
AcDbVertex
100
AcDb2dVertex
 10
-5.428954
 20
4.923948
 30
0.0
 70
     8
  0
VERTEX
  5
13A3
100
AcDbEntity
  8
A-HATCH
100
AcDbVertex
100
AcDb2dVertex
 10
-5.521318
 20
5.017611
 30
0.0
 70
     8
  0
VERTEX
  5
13A4
100
AcDbEntity
  8
A-HATCH
100
AcDbVertex
100
AcDb2dVertex
 10
-5.614332
 20
5.101285
 30
0.0
 70
     8
  0
VERTEX
  5
13A5
100
AcDbEntity
  8
A-HATCH
100
AcDbVertex
100
AcDb2dVertex
 10
-5.713382
 20
5.173735
 30
0.0
 70
     8
  0
VERTEX
  5
13A6
100
AcDbEntity
  8
A-HATCH
100
AcDbVertex
100
AcDb2dVertex
 10
-5.822635
 20
5.234152
 30
0.0
 70
     8
  0
VERTEX
  5
13A7
100
AcDbEntity
  8
A-HATCH
100
AcDbVertex
100
AcDb2dVertex
 10
-5.941366
 20
5.283412
 30
0.0
 70
     8
  0
VERTEX
  5
13A8
100
AcDbEntity
  8
A-HATCH
100
AcDbVertex
100
AcDb2dVertex
 10
-6.067627
 20
5.32281
 30
0.0
 70
     8
  0
VERTEX
  5
13A9
100
AcDbEntity
  8
A-HATCH
100
AcDbVertex
100
AcDb2dVertex
 10
-6.199471
 20
5.353646
 30
0.0
 70
     8
  0
VERTEX
  5
13AA
100
AcDbEntity
  8
A-HATCH
100
AcDbVertex
100
AcDb2dVertex
 10
-6.33495
 20
5.377216
 30
0.0
 70
     8
  0
VERTEX
  5
13AB
100
AcDbEntity
  8
A-HATCH
100
AcDbVertex
100
AcDb2dVertex
 10
-6.472117
 20
5.394818
 30
0.0
 70
     8
  0
VERTEX
  5
13AC
100
AcDbEntity
  8
A-HATCH
100
AcDbVertex
100
AcDb2dVertex
 10
-6.609025
 20
5.407749
 30
0.0
 70
     8
  0
VERTEX
  5
13AD
100
AcDbEntity
  8
A-HATCH
100
AcDbVertex
100
AcDb2dVertex
 10
-6.743725
 20
5.417306
 30
0.0
 70
     8
  0
VERTEX
  5
13AE
100
AcDbEntity
  8
A-HATCH
100
AcDbVertex
100
AcDb2dVertex
 10
-6.874866
 20
5.424583
 30
0.0
 70
     8
  0
VERTEX
  5
13AF
100
AcDbEntity
  8
A-HATCH
100
AcDbVertex
100
AcDb2dVertex
 10
-7.003474
 20
5.429848
 30
0.0
 70
     8
  0
VERTEX
  5
13B0
100
AcDbEntity
  8
A-HATCH
100
AcDbVertex
100
AcDb2dVertex
 10
-7.131175
 20
5.433168
 30
0.0
 70
     8
  0
VERTEX
  5
13B1
100
AcDbEntity
  8
A-HATCH
100
AcDbVertex
100
AcDb2dVertex
 10
-7.259589
 20
5.434606
 30
0.0
 70
     8
  0
VERTEX
  5
13B2
100
AcDbEntity
  8
A-HATCH
100
AcDbVertex
100
AcDb2dVertex
 10
-7.39034
 20
5.434227
 30
0.0
 70
     8
  0
VERTEX
  5
13B3
100
AcDbEntity
  8
A-HATCH
100
AcDbVertex
100
AcDb2dVertex
 10
-7.525051
 20
5.432097
 30
0.0
 70
     8
  0
VERTEX
  5
13B4
100
AcDbEntity
  8
A-HATCH
100
AcDbVertex
100
AcDb2dVertex
 10
-7.665345
 20
5.428281
 30
0.0
 70
     8
  0
VERTEX
  5
13B5
100
AcDbEntity
  8
A-HATCH
100
AcDbVertex
100
AcDb2dVertex
 10
-7.812844
 20
5.422842
 30
0.0
 70
     8
  0
VERTEX
  5
13B6
100
AcDbEntity
  8
A-HATCH
100
AcDbVertex
100
AcDb2dVertex
 10
-7.969037
 20
5.41581
 30
0.0
 70
     8
  0
VERTEX
  5
13B7
100
AcDbEntity
  8
A-HATCH
100
AcDbVertex
100
AcDb2dVertex
 10
-8.134868
 20
5.407064
 30
0.0
 70
     8
  0
VERTEX
  5
13B8
100
AcDbEntity
  8
A-HATCH
100
AcDbVertex
100
AcDb2dVertex
 10
-8.311148
 20
5.396447
 30
0.0
 70
     8
  0
VERTEX
  5
13B9
100
AcDbEntity
  8
A-HATCH
100
AcDbVertex
100
AcDb2dVertex
 10
-8.498687
 20
5.383803
 30
0.0
 70
     8
  0
VERTEX
  5
13BA
100
AcDbEntity
  8
A-HATCH
100
AcDbVertex
100
AcDb2dVertex
 10
-8.698296
 20
5.368974
 30
0.0
 70
     8
  0
VERTEX
  5
13BB
100
AcDbEntity
  8
A-HATCH
100
AcDbVertex
100
AcDb2dVertex
 10
-8.910784
 20
5.351804
 30
0.0
 70
     8
  0
VERTEX
  5
13BC
100
AcDbEntity
  8
A-HATCH
100
AcDbVertex
100
AcDb2dVertex
 10
-9.136962
 20
5.332136
 30
0.0
 70
     8
  0
VERTEX
  5
13BD
100
AcDbEntity
  8
A-HATCH
100
AcDbVertex
100
AcDb2dVertex
 10
-9.37764
 20
5.309812
 30
0.0
 70
     8
  0
VERTEX
  5
13BE
100
AcDbEntity
  8
A-HATCH
100
AcDbVertex
100
AcDb2dVertex
 10
-3.464354
 20
3.645881
 30
0.0
 70
    16
  0
VERTEX
  5
13BF
100
AcDbEntity
  8
A-HATCH
100
AcDbVertex
100
AcDb2dVertex
 10
-5.126198
 20
4.376594
 30
0.0
 70
    16
  0
VERTEX
  5
13C0
100
AcDbEntity
  8
A-HATCH
100
AcDbVertex
100
AcDb2dVertex
 10
-5.591514
 20
5.306592
 30
0.0
 70
    16
  0
VERTEX
  5
13C1
100
AcDbEntity
  8
A-HATCH
100
AcDbVertex
100
AcDb2dVertex
 10
-6.788041
 20
5.439449
 30
0.0
 70
    16
  0
VERTEX
  5
13C2
100
AcDbEntity
  8
A-HATCH
100
AcDbVertex
100
AcDb2dVertex
 10
-7.718673
 20
5.439449
 30
0.0
 70
    16
  0
VERTEX
  5
13C3
100
AcDbEntity
  8
A-HATCH
100
AcDbVertex
100
AcDb2dVertex
 10
-8.715779
 20
5.373021
 30
0.0
 70
    16
  0
VERTEX
  5
13C4
100
AcDbEntity
  8
A-HATCH
100
AcDbVertex
100
AcDb2dVertex
 10
-9.37764
 20
5.309812
 30
0.0
 70
    16
  0
SEQEND
  5
13C5
100
AcDbEntity
  8
A-HATCH
  0
CIRCLE
  5
13C6
100
AcDbEntity
  8
A-HATCH
100
AcDbCircle
 10
-3.863197
 20
5.040879
 30
0.0
 40
0.612838
  0
POLYLINE
  5
13C7
100
AcDbEntity
  8
A-HATCH
100
AcDb2dPolyline
 66
     1
 10
0.0
 20
0.0
 30
0.0
 70
     4
 75
     6
  0
VERTEX
  5
13C8
100
AcDbEntity
  8
A-HATCH
100
AcDbVertex
100
AcDb2dVertex
 10
-4.815715
 20
-0.734864
 30
0.0
 70
    16
  0
VERTEX
  5
13C9
100
AcDbEntity
  8
A-HATCH
100
AcDbVertex
100
AcDb2dVertex
 10
-4.815715
 20
-0.734864
 30
0.0
 70
     8
  0
VERTEX
  5
13CA
100
AcDbEntity
  8
A-HATCH
100
AcDbVertex
100
AcDb2dVertex
 10
-4.497024
 20
-0.605638
 30
0.0
 70
     8
  0
VERTEX
  5
13CB
100
AcDbEntity
  8
A-HATCH
100
AcDbVertex
100
AcDb2dVertex
 10
-4.230756
 20
-0.515824
 30
0.0
 70
     8
  0
VERTEX
  5
13CC
100
AcDbEntity
  8
A-HATCH
100
AcDbVertex
100
AcDb2dVertex
 10
-3.980035
 20
-0.467798
 30
0.0
 70
     8
  0
VERTEX
  5
13CD
100
AcDbEntity
  8
A-HATCH
100
AcDbVertex
100
AcDb2dVertex
 10
-3.707985
 20
-0.463937
 30
0.0
 70
     8
  0
VERTEX
  5
13CE
100
AcDbEntity
  8
A-HATCH
100
AcDbVertex
100
AcDb2dVertex
 10
-3.37773
 20
-0.506618
 30
0.0
 70
     8
  0
VERTEX
  5
13CF
100
AcDbEntity
  8
A-HATCH
100
AcDbVertex
100
AcDb2dVertex
 10
-2.952395
 20
-0.598218
 30
0.0
 70
     8
  0
VERTEX
  5
13D0
100
AcDbEntity
  8
A-HATCH
100
AcDbVertex
100
AcDb2dVertex
 10
-2.395104
 20
-0.741113
 30
0.0
 70
     8
  0
VERTEX
  5
13D1
100
AcDbEntity
  8
A-HATCH
100
AcDbVertex
100
AcDb2dVertex
 10
-1.668981
 20
-0.937681
 30
0.0
 70
     8
  0
VERTEX
  5
13D2
100
AcDbEntity
  8
A-HATCH
100
AcDbVertex
100
AcDb2dVertex
 10
-3.863197
 20
-0.339825
 30
0.0
 70
    16
  0
VERTEX
  5
13D3
100
AcDbEntity
  8
A-HATCH
100
AcDbVertex
100
AcDb2dVertex
 10
-1.668981
 20
-0.937681
 30
0.0
 70
    16
  0
SEQEND
  5
13D4
100
AcDbEntity
  8
A-HATCH
  0
POLYLINE
  5
13D5
100
AcDbEntity
  8
A-HATCH
100
AcDb2dPolyline
 66
     1
 10
0.0
 20
0.0
 30
0.0
 70
     4
 75
     6
  0
VERTEX
  5
13D6
100
AcDbEntity
  8
A-HATCH
100
AcDbVertex
100
AcDb2dVertex
 10
-1.668981
 20
1.719457
 30
0.0
 70
    16
  0
VERTEX
  5
13D7
100
AcDbEntity
  8
A-HATCH
100
AcDbVertex
100
AcDb2dVertex
 10
-1.668981
 20
1.719457
 30
0.0
 70
     8
  0
VERTEX
  5
13D8
100
AcDbEntity
  8
A-HATCH
100
AcDbVertex
100
AcDb2dVertex
 10
-2.387039
 20
1.789913
 30
0.0
 70
     8
  0
VERTEX
  5
13D9
100
AcDbEntity
  8
A-HATCH
100
AcDbVertex
100
AcDb2dVertex
 10
-3.087295
 20
1.847168
 30
0.0
 70
     8
  0
VERTEX
  5
13DA
100
AcDbEntity
  8
A-HATCH
100
AcDbVertex
100
AcDb2dVertex
 10
-3.758236
 20
1.884249
 30
0.0
 70
     8
  0
VERTEX
  5
13DB
100
AcDbEntity
  8
A-HATCH
100
AcDbVertex
100
AcDb2dVertex
 10
-4.388345
 20
1.894183
 30
0.0
 70
     8
  0
VERTEX
  5
13DC
100
AcDbEntity
  8
A-HATCH
100
AcDbVertex
100
AcDb2dVertex
 10
-4.966108
 20
1.869997
 30
0.0
 70
     8
  0
VERTEX
  5
13DD
100
AcDbEntity
  8
A-HATCH
100
AcDbVertex
100
AcDb2dVertex
 10
-5.480011
 20
1.804718
 30
0.0
 70
     8
  0
VERTEX
  5
13DE
100
AcDbEntity
  8
A-HATCH
100
AcDbVertex
100
AcDb2dVertex
 10
-5.918538
 20
1.691372
 30
0.0
 70
     8
  0
VERTEX
  5
13DF
100
AcDbEntity
  8
A-HATCH
100
AcDbVertex
100
AcDb2dVertex
 10
-6.270175
 20
1.522986
 30
0.0
 70
     8
  0
VERTEX
  5
13E0
100
AcDbEntity
  8
A-HATCH
100
AcDbVertex
100
AcDb2dVertex
 10
-3.597302
 20
1.918742
 30
0.0
 70
    16
  0
VERTEX
  5
13E1
100
AcDbEntity
  8
A-HATCH
100
AcDbVertex
100
AcDb2dVertex
 10
-5.458566
 20
2.051599
 30
0.0
 70
    16
  0
VERTEX
  5
13E2
100
AcDbEntity
  8
A-HATCH
100
AcDbVertex
100
AcDb2dVertex
 10
-6.270175
 20
1.522986
 30
0.0
 70
    16
  0
SEQEND
  5
13E3
100
AcDbEntity
  8
A-HATCH
  0
POLYLINE
  5
13E4
100
AcDbEntity
  8
A-HATCH
100
AcDb2dPolyline
 66
     1
 10
0.0
 20
0.0
 30
0.0
 70
     4
 75
     6
  0
VERTEX
  5
13E5
100
AcDbEntity
  8
A-HATCH
100
AcDbVertex
100
AcDb2dVertex
 10
-1.668981
 20
2.649455
 30
0.0
 70
    16
  0
VERTEX
  5
13E6
100
AcDbEntity
  8
A-HATCH
100
AcDbVertex
100
AcDb2dVertex
 10
-1.668981
 20
2.649455
 30
0.0
 70
     8
  0
VERTEX
  5
13E7
100
AcDbEntity
  8
A-HATCH
100
AcDbVertex
100
AcDb2dVertex
 10
-2.086614
 20
2.541346
 30
0.0
 70
     8
  0
VERTEX
  5
13E8
100
AcDbEntity
  8
A-HATCH
100
AcDbVertex
100
AcDb2dVertex
 10
-2.491151
 20
2.463403
 30
0.0
 70
     8
  0
VERTEX
  5
13E9
100
AcDbEntity
  8
A-HATCH
100
AcDbVertex
100
AcDb2dVertex
 10
-2.882015
 20
2.411539
 30
0.0
 70
     8
  0
VERTEX
  5
13EA
100
AcDbEntity
  8
A-HATCH
100
AcDbVertex
100
AcDb2dVertex
 10
-3.258628
 20
2.381665
 30
0.0
 70
     8
  0
VERTEX
  5
13EB
100
AcDbEntity
  8
A-HATCH
100
AcDbVertex
100
AcDb2dVertex
 10
-3.620413
 20
2.369696
 30
0.0
 70
     8
  0
VERTEX
  5
13EC
100
AcDbEntity
  8
A-HATCH
100
AcDbVertex
100
AcDb2dVertex
 10
-3.966793
 20
2.371545
 30
0.0
 70
     8
  0
VERTEX
  5
13ED
100
AcDbEntity
  8
A-HATCH
100
AcDbVertex
100
AcDb2dVertex
 10
-4.29719
 20
2.383125
 30
0.0
 70
     8
  0
VERTEX
  5
13EE
100
AcDbEntity
  8
A-HATCH
100
AcDbVertex
100
AcDb2dVertex
 10
-4.611026
 20
2.400348
 30
0.0
 70
     8
  0
VERTEX
  5
13EF
100
AcDbEntity
  8
A-HATCH
100
AcDbVertex
100
AcDb2dVertex
 10
-4.908229
 20
2.418911
 30
0.0
 70
     8
  0
VERTEX
  5
13F0
100
AcDbEntity
  8
A-HATCH
100
AcDbVertex
100
AcDb2dVertex
 10
-5.190742
 20
2.433637
 30
0.0
 70
     8
  0
VERTEX
  5
13F1
100
AcDbEntity
  8
A-HATCH
100
AcDbVertex
100
AcDb2dVertex
 10
-5.461012
 20
2.439134
 30
0.0
 70
     8
  0
VERTEX
  5
13F2
100
AcDbEntity
  8
A-HATCH
100
AcDbVertex
100
AcDb2dVertex
 10
-5.721488
 20
2.430009
 30
0.0
 70
     8
  0
VERTEX
  5
13F3
100
AcDbEntity
  8
A-HATCH
100
AcDbVertex
100
AcDb2dVertex
 10
-5.974618
 20
2.400867
 30
0.0
 70
     8
  0
VERTEX
  5
13F4
100
AcDbEntity
  8
A-HATCH
100
AcDbVertex
100
AcDb2dVertex
 10
-6.222848
 20
2.346317
 30
0.0
 70
     8
  0
VERTEX
  5
13F5
100
AcDbEntity
  8
A-HATCH
100
AcDbVertex
100
AcDb2dVertex
 10
-6.468628
 20
2.260965
 30
0.0
 70
     8
  0
VERTEX
  5
13F6
100
AcDbEntity
  8
A-HATCH
100
AcDbVertex
100
AcDb2dVertex
 10
-6.714404
 20
2.139418
 30
0.0
 70
     8
  0
VERTEX
  5
13F7
100
AcDbEntity
  8
A-HATCH
100
AcDbVertex
100
AcDb2dVertex
 10
-2.799617
 20
2.317313
 30
0.0
 70
    16
  0
VERTEX
  5
13F8
100
AcDbEntity
  8
A-HATCH
100
AcDbVertex
100
AcDb2dVertex
 10
-4.793829
 20
2.383741
 30
0.0
 70
    16
  0
VERTEX
  5
13F9
100
AcDbEntity
  8
A-HATCH
100
AcDbVertex
100
AcDb2dVertex
 10
-6.05683
 20
2.516598
 30
0.0
 70
    16
  0
VERTEX
  5
13FA
100
AcDbEntity
  8
A-HATCH
100
AcDbVertex
100
AcDb2dVertex
 10
-6.714404
 20
2.139418
 30
0.0
 70
    16
  0
SEQEND
  5
13FB
100
AcDbEntity
  8
A-HATCH
  0
POLYLINE
  5
13FC
100
AcDbEntity
  8
A-HATCH
100
AcDb2dPolyline
 66
     1
 10
0.0
 20
0.0
 30
0.0
 70
     4
 75
     6
  0
VERTEX
  5
13FD
100
AcDbEntity
  8
A-HATCH
100
AcDbVertex
100
AcDb2dVertex
 10
-8.866067
 20
4.760725
 30
0.0
 70
    16
  0
VERTEX
  5
13FE
100
AcDbEntity
  8
A-HATCH
100
AcDbVertex
100
AcDb2dVertex
 10
-8.866067
 20
4.760725
 30
0.0
 70
     8
  0
VERTEX
  5
13FF
100
AcDbEntity
  8
A-HATCH
100
AcDbVertex
100
AcDb2dVertex
 10
-8.023352
 20
4.74044
 30
0.0
 70
     8
  0
VERTEX
  5
1400
100
AcDbEntity
  8
A-HATCH
100
AcDbVertex
100
AcDb2dVertex
 10
-7.338831
 20
4.674534
 30
0.0
 70
     8
  0
VERTEX
  5
1401
100
AcDbEntity
  8
A-HATCH
100
AcDbVertex
100
AcDb2dVertex
 10
-6.791463
 20
4.571673
 30
0.0
 70
     8
  0
VERTEX
  5
1402
100
AcDbEntity
  8
A-HATCH
100
AcDbVertex
100
AcDb2dVertex
 10
-6.360207
 20
4.440526
 30
0.0
 70
     8
  0
VERTEX
  5
1403
100
AcDbEntity
  8
A-HATCH
100
AcDbVertex
100
AcDb2dVertex
 10
-6.024021
 20
4.289759
 30
0.0
 70
     8
  0
VERTEX
  5
1404
100
AcDbEntity
  8
A-HATCH
100
AcDbVertex
100
AcDb2dVertex
 10
-5.761864
 20
4.12804
 30
0.0
 70
     8
  0
VERTEX
  5
1405
100
AcDbEntity
  8
A-HATCH
100
AcDbVertex
100
AcDb2dVertex
 10
-5.552696
 20
3.964037
 30
0.0
 70
     8
  0
VERTEX
  5
1406
100
AcDbEntity
  8
A-HATCH
100
AcDbVertex
100
AcDb2dVertex
 10
-5.375474
 20
3.806417
 30
0.0
 70
     8
  0
VERTEX
  5
1407
100
AcDbEntity
  8
A-HATCH
100
AcDbVertex
100
AcDb2dVertex
 10
-5.211886
 20
3.662424
 30
0.0
 70
     8
  0
VERTEX
  5
1408
100
AcDbEntity
  8
A-HATCH
100
AcDbVertex
100
AcDb2dVertex
 10
-5.054531
 20
3.53361
 30
0.0
 70
     8
  0
VERTEX
  5
1409
100
AcDbEntity
  8
A-HATCH
100
AcDbVertex
100
AcDb2dVertex
 10
-4.898733
 20
3.420107
 30
0.0
 70
     8
  0
VERTEX
  5
140A
100
AcDbEntity
  8
A-HATCH
100
AcDbVertex
100
AcDb2dVertex
 10
-4.739819
 20
3.322043
 30
0.0
 70
     8
  0
VERTEX
  5
140B
100
AcDbEntity
  8
A-HATCH
100
AcDbVertex
100
AcDb2dVertex
 10
-4.573115
 20
3.239548
 30
0.0
 70
     8
  0
VERTEX
  5
140C
100
AcDbEntity
  8
A-HATCH
100
AcDbVertex
100
AcDb2dVertex
 10
-4.393948
 20
3.172752
 30
0.0
 70
     8
  0
VERTEX
  5
140D
100
AcDbEntity
  8
A-HATCH
100
AcDbVertex
100
AcDb2dVertex
 10
-4.197643
 20
3.121784
 30
0.0
 70
     8
  0
VERTEX
  5
140E
100
AcDbEntity
  8
A-HATCH
100
AcDbVertex
100
AcDb2dVertex
 10
-3.979526
 20
3.086775
 30
0.0
 70
     8
  0
VERTEX
  5
140F
100
AcDbEntity
  8
A-HATCH
100
AcDbVertex
100
AcDb2dVertex
 10
-3.736448
 20
3.068341
 30
0.0
 70
     8
  0
VERTEX
  5
1410
100
AcDbEntity
  8
A-HATCH
100
AcDbVertex
100
AcDb2dVertex
 10
-3.471356
 20
3.069044
 30
0.0
 70
     8
  0
VERTEX
  5
1411
100
AcDbEntity
  8
A-HATCH
100
AcDbVertex
100
AcDb2dVertex
 10
-3.188724
 20
3.091933
 30
0.0
 70
     8
  0
VERTEX
  5
1412
100
AcDbEntity
  8
A-HATCH
100
AcDbVertex
100
AcDb2dVertex
 10
-2.893023
 20
3.140057
 30
0.0
 70
     8
  0
VERTEX
  5
1413
100
AcDbEntity
  8
A-HATCH
100
AcDbVertex
100
AcDb2dVertex
 10
-2.588726
 20
3.216464
 30
0.0
 70
     8
  0
VERTEX
  5
1414
100
AcDbEntity
  8
A-HATCH
100
AcDbVertex
100
AcDb2dVertex
 10
-2.280305
 20
3.324205
 30
0.0
 70
     8
  0
VERTEX
  5
1415
100
AcDbEntity
  8
A-HATCH
100
AcDbVertex
100
AcDb2dVertex
 10
-1.972232
 20
3.466328
 30
0.0
 70
     8
  0
VERTEX
  5
1416
100
AcDbEntity
  8
A-HATCH
100
AcDbVertex
100
AcDb2dVertex
 10
-1.668981
 20
3.645881
 30
0.0
 70
     8
  0
VERTEX
  5
1417
100
AcDbEntity
  8
A-HATCH
100
AcDbVertex
100
AcDb2dVertex
 10
-6.389199
 20
4.775165
 30
0.0
 70
    16
  0
VERTEX
  5
1418
100
AcDbEntity
  8
A-HATCH
100
AcDbVertex
100
AcDb2dVertex
 10
-5.259145
 20
3.645881
 30
0.0
 70
    16
  0
VERTEX
  5
1419
100
AcDbEntity
  8
A-HATCH
100
AcDbVertex
100
AcDb2dVertex
 10
-4.262039
 20
2.915169
 30
0.0
 70
    16
  0
VERTEX
  5
141A
100
AcDbEntity
  8
A-HATCH
100
AcDbVertex
100
AcDb2dVertex
 10
-2.467248
 20
3.114454
 30
0.0
 70
    16
  0
VERTEX
  5
141B
100
AcDbEntity
  8
A-HATCH
100
AcDbVertex
100
AcDb2dVertex
 10
-1.668981
 20
3.645881
 30
0.0
 70
    16
  0
SEQEND
  5
141C
100
AcDbEntity
  8
A-HATCH
  0
POLYLINE
  5
141D
100
AcDbEntity
  8
A-HATCH
100
AcDb2dPolyline
 66
     1
 10
0.0
 20
0.0
 30
0.0
 70
     4
 75
     6
  0
VERTEX
  5
141E
100
AcDbEntity
  8
A-HATCH
100
AcDbVertex
100
AcDb2dVertex
 10
-2.489633
 20
6.413581
 30
0.0
 70
    16
  0
VERTEX
  5
141F
100
AcDbEntity
  8
A-HATCH
100
AcDbVertex
100
AcDb2dVertex
 10
-2.489633
 20
6.413581
 30
0.0
 70
     8
  0
VERTEX
  5
1420
100
AcDbEntity
  8
A-HATCH
100
AcDbVertex
100
AcDb2dVertex
 10
-2.900843
 20
6.531817
 30
0.0
 70
     8
  0
VERTEX
  5
1421
100
AcDbEntity
  8
A-HATCH
100
AcDbVertex
100
AcDb2dVertex
 10
-3.257931
 20
6.622209
 30
0.0
 70
     8
  0
VERTEX
  5
1422
100
AcDbEntity
  8
A-HATCH
100
AcDbVertex
100
AcDb2dVertex
 10
-3.566998
 20
6.687032
 30
0.0
 70
     8
  0
VERTEX
  5
1423
100
AcDbEntity
  8
A-HATCH
100
AcDbVertex
100
AcDb2dVertex
 10
-3.834143
 20
6.728557
 30
0.0
 70
     8
  0
VERTEX
  5
1424
100
AcDbEntity
  8
A-HATCH
100
AcDbVertex
100
AcDb2dVertex
 10
-4.065465
 20
6.749057
 30
0.0
 70
     8
  0
VERTEX
  5
1425
100
AcDbEntity
  8
A-HATCH
100
AcDbVertex
100
AcDb2dVertex
 10
-4.267063
 20
6.750803
 30
0.0
 70
     8
  0
VERTEX
  5
1426
100
AcDbEntity
  8
A-HATCH
100
AcDbVertex
100
AcDb2dVertex
 10
-4.445037
 20
6.736068
 30
0.0
 70
     8
  0
VERTEX
  5
1427
100
AcDbEntity
  8
A-HATCH
100
AcDbVertex
100
AcDb2dVertex
 10
-4.605487
 20
6.707125
 30
0.0
 70
     8
  0
VERTEX
  5
1428
100
AcDbEntity
  8
A-HATCH
100
AcDbVertex
100
AcDb2dVertex
 10
-4.753776
 20
6.666332
 30
0.0
 70
     8
  0
VERTEX
  5
1429
100
AcDbEntity
  8
A-HATCH
100
AcDbVertex
100
AcDb2dVertex
 10
-4.892328
 20
6.616392
 30
0.0
 70
     8
  0
VERTEX
  5
142A
100
AcDbEntity
  8
A-HATCH
100
AcDbVertex
100
AcDb2dVertex
 10
-5.02283
 20
6.560094
 30
0.0
 70
     8
  0
VERTEX
  5
142B
100
AcDbEntity
  8
A-HATCH
100
AcDbVertex
100
AcDb2dVertex
 10
-5.146971
 20
6.500228
 30
0.0
 70
     8
  0
VERTEX
  5
142C
100
AcDbEntity
  8
A-HATCH
100
AcDbVertex
100
AcDb2dVertex
 10
-5.266437
 20
6.439584
 30
0.0
 70
     8
  0
VERTEX
  5
142D
100
AcDbEntity
  8
A-HATCH
100
AcDbVertex
100
AcDb2dVertex
 10
-5.382918
 20
6.380951
 30
0.0
 70
     8
  0
VERTEX
  5
142E
100
AcDbEntity
  8
A-HATCH
100
AcDbVertex
100
AcDb2dVertex
 10
-5.4981
 20
6.327119
 30
0.0
 70
     8
  0
VERTEX
  5
142F
100
AcDbEntity
  8
A-HATCH
100
AcDbVertex
100
AcDb2dVertex
 10
-5.613672
 20
6.280876
 30
0.0
 70
     8
  0
VERTEX
  5
1430
100
AcDbEntity
  8
A-HATCH
100
AcDbVertex
100
AcDb2dVertex
 10
-5.731018
 20
6.24444
 30
0.0
 70
     8
  0
VERTEX
  5
1431
100
AcDbEntity
  8
A-HATCH
100
AcDbVertex
100
AcDb2dVertex
 10
-5.850311
 20
6.217735
 30
0.0
 70
     8
  0
VERTEX
  5
1432
100
AcDbEntity
  8
A-HATCH
100
AcDbVertex
100
AcDb2dVertex
 10
-5.971422
 20
6.200111
 30
0.0
 70
     8
  0
VERTEX
  5
1433
100
AcDbEntity
  8
A-HATCH
100
AcDbVertex
100
AcDb2dVertex
 10
-6.094221
 20
6.190921
 30
0.0
 70
     8
  0
VERTEX
  5
1434
100
AcDbEntity
  8
A-HATCH
100
AcDbVertex
100
AcDb2dVertex
 10
-6.218578
 20
6.189515
 30
0.0
 70
     8
  0
VERTEX
  5
1435
100
AcDbEntity
  8
A-HATCH
100
AcDbVertex
100
AcDb2dVertex
 10
-6.344363
 20
6.195246
 30
0.0
 70
     8
  0
VERTEX
  5
1436
100
AcDbEntity
  8
A-HATCH
100
AcDbVertex
100
AcDb2dVertex
 10
-6.471447
 20
6.207463
 30
0.0
 70
     8
  0
VERTEX
  5
1437
100
AcDbEntity
  8
A-HATCH
100
AcDbVertex
100
AcDb2dVertex
 10
-6.599699
 20
6.225519
 30
0.0
 70
     8
  0
VERTEX
  5
1438
100
AcDbEntity
  8
A-HATCH
100
AcDbVertex
100
AcDb2dVertex
 10
-6.729054
 20
6.24857
 30
0.0
 70
     8
  0
VERTEX
  5
1439
100
AcDbEntity
  8
A-HATCH
100
AcDbVertex
100
AcDb2dVertex
 10
-6.859708
 20
6.274995
 30
0.0
 70
     8
  0
VERTEX
  5
143A
100
AcDbEntity
  8
A-HATCH
100
AcDbVertex
100
AcDb2dVertex
 10
-6.991919
 20
6.302976
 30
0.0
 70
     8
  0
VERTEX
  5
143B
100
AcDbEntity
  8
A-HATCH
100
AcDbVertex
100
AcDb2dVertex
 10
-7.125949
 20
6.330698
 30
0.0
 70
     8
  0
VERTEX
  5
143C
100
AcDbEntity
  8
A-HATCH
100
AcDbVertex
100
AcDb2dVertex
 10
-7.262056
 20
6.356343
 30
0.0
 70
     8
  0
VERTEX
  5
143D
100
AcDbEntity
  8
A-HATCH
100
AcDbVertex
100
AcDb2dVertex
 10
-7.400499
 20
6.378097
 30
0.0
 70
     8
  0
VERTEX
  5
143E
100
AcDbEntity
  8
A-HATCH
100
AcDbVertex
100
AcDb2dVertex
 10
-7.541539
 20
6.394142
 30
0.0
 70
     8
  0
VERTEX
  5
143F
100
AcDbEntity
  8
A-HATCH
100
AcDbVertex
100
AcDb2dVertex
 10
-7.685436
 20
6.402662
 30
0.0
 70
     8
  0
VERTEX
  5
1440
100
AcDbEntity
  8
A-HATCH
100
AcDbVertex
100
AcDb2dVertex
 10
-7.832092
 20
6.402359
 30
0.0
 70
     8
  0
VERTEX
  5
1441
100
AcDbEntity
  8
A-HATCH
100
AcDbVertex
100
AcDb2dVertex
 10
-7.97998
 20
6.394012
 30
0.0
 70
     8
  0
VERTEX
  5
1442
100
AcDbEntity
  8
A-HATCH
100
AcDbVertex
100
AcDb2dVertex
 10
-8.12722
 20
6.378919
 30
0.0
 70
     8
  0
VERTEX
  5
1443
100
AcDbEntity
  8
A-HATCH
100
AcDbVertex
100
AcDb2dVertex
 10
-8.271928
 20
6.358376
 30
0.0
 70
     8
  0
VERTEX
  5
1444
100
AcDbEntity
  8
A-HATCH
100
AcDbVertex
100
AcDb2dVertex
 10
-8.412222
 20
6.333682
 30
0.0
 70
     8
  0
VERTEX
  5
1445
100
AcDbEntity
  8
A-HATCH
100
AcDbVertex
100
AcDb2dVertex
 10
-8.546219
 20
6.306133
 30
0.0
 70
     8
  0
VERTEX
  5
1446
100
AcDbEntity
  8
A-HATCH
100
AcDbVertex
100
AcDb2dVertex
 10
-8.672037
 20
6.277027
 30
0.0
 70
     8
  0
VERTEX
  5
1447
100
AcDbEntity
  8
A-HATCH
100
AcDbVertex
100
AcDb2dVertex
 10
-8.787792
 20
6.247662
 30
0.0
 70
     8
  0
VERTEX
  5
1448
100
AcDbEntity
  8
A-HATCH
100
AcDbVertex
100
AcDb2dVertex
 10
-8.893638
 20
6.219241
 30
0.0
 70
     8
  0
VERTEX
  5
1449
100
AcDbEntity
  8
A-HATCH
100
AcDbVertex
100
AcDb2dVertex
 10
-8.997867
 20
6.192589
 30
0.0
 70
     8
  0
VERTEX
  5
144A
100
AcDbEntity
  8
A-HATCH
100
AcDbVertex
100
AcDb2dVertex
 10
-9.110806
 20
6.168439
 30
0.0
 70
     8
  0
VERTEX
  5
144B
100
AcDbEntity
  8
A-HATCH
100
AcDbVertex
100
AcDb2dVertex
 10
-9.242782
 20
6.147524
 30
0.0
 70
     8
  0
VERTEX
  5
144C
100
AcDbEntity
  8
A-HATCH
100
AcDbVertex
100
AcDb2dVertex
 10
-9.404122
 20
6.130575
 30
0.0
 70
     8
  0
VERTEX
  5
144D
100
AcDbEntity
  8
A-HATCH
100
AcDbVertex
100
AcDb2dVertex
 10
-9.605153
 20
6.118323
 30
0.0
 70
     8
  0
VERTEX
  5
144E
100
AcDbEntity
  8
A-HATCH
100
AcDbVertex
100
AcDb2dVertex
 10
-9.856204
 20
6.111502
 30
0.0
 70
     8
  0
VERTEX
  5
144F
100
AcDbEntity
  8
A-HATCH
100
AcDbVertex
100
AcDb2dVertex
 10
-10.1676
 20
6.110843
 30
0.0
 70
     8
  0
VERTEX
  5
1450
100
AcDbEntity
  8
A-HATCH
100
AcDbVertex
100
AcDb2dVertex
 10
-3.663775
 20
6.768018
 30
0.0
 70
    16
  0
VERTEX
  5
1451
100
AcDbEntity
  8
A-HATCH
100
AcDbVertex
100
AcDb2dVertex
 10
-4.727355
 20
6.834446
 30
0.0
 70
    16
  0
VERTEX
  5
1452
100
AcDbEntity
  8
A-HATCH
100
AcDbVertex
100
AcDb2dVertex
 10
-5.591514
 20
6.170162
 30
0.0
 70
    16
  0
VERTEX
  5
1453
100
AcDbEntity
  8
A-HATCH
100
AcDbVertex
100
AcDb2dVertex
 10
-6.58862
 20
6.170162
 30
0.0
 70
    16
  0
VERTEX
  5
1454
100
AcDbEntity
  8
A-HATCH
100
AcDbVertex
100
AcDb2dVertex
 10
-7.652199
 20
6.502304
 30
0.0
 70
    16
  0
VERTEX
  5
1455
100
AcDbEntity
  8
A-HATCH
100
AcDbVertex
100
AcDb2dVertex
 10
-8.9152
 20
6.236591
 30
0.0
 70
    16
  0
VERTEX
  5
1456
100
AcDbEntity
  8
A-HATCH
100
AcDbVertex
100
AcDb2dVertex
 10
-9.247569
 20
6.103734
 30
0.0
 70
    16
  0
VERTEX
  5
1457
100
AcDbEntity
  8
A-HATCH
100
AcDbVertex
100
AcDb2dVertex
 10
-10.1676
 20
6.110843
 30
0.0
 70
    16
  0
SEQEND
  5
1458
100
AcDbEntity
  8
A-HATCH
  0
POLYLINE
  5
1459
100
AcDbEntity
  8
A-HATCH
100
AcDb2dPolyline
 66
     1
 10
0.0
 20
0.0
 30
0.0
 70
     4
 75
     6
  0
VERTEX
  5
145A
100
AcDbEntity
  8
A-HATCH
100
AcDbVertex
100
AcDb2dVertex
 10
-6.976927
 20
2.490119
 30
0.0
 70
    16
  0
VERTEX
  5
145B
100
AcDbEntity
  8
A-HATCH
100
AcDbVertex
100
AcDb2dVertex
 10
-6.976927
 20
2.490119
 30
0.0
 70
     8
  0
VERTEX
  5
145C
100
AcDbEntity
  8
A-HATCH
100
AcDbVertex
100
AcDb2dVertex
 10
-6.597478
 20
2.637954
 30
0.0
 70
     8
  0
VERTEX
  5
145D
100
AcDbEntity
  8
A-HATCH
100
AcDbVertex
100
AcDb2dVertex
 10
-6.293959
 20
2.765
 30
0.0
 70
     8
  0
VERTEX
  5
145E
100
AcDbEntity
  8
A-HATCH
100
AcDbVertex
100
AcDb2dVertex
 10
-6.059159
 20
2.874744
 30
0.0
 70
     8
  0
VERTEX
  5
145F
100
AcDbEntity
  8
A-HATCH
100
AcDbVertex
100
AcDb2dVertex
 10
-5.885867
 20
2.970676
 30
0.0
 70
     8
  0
VERTEX
  5
1460
100
AcDbEntity
  8
A-HATCH
100
AcDbVertex
100
AcDb2dVertex
 10
-5.766869
 20
3.056284
 30
0.0
 70
     8
  0
VERTEX
  5
1461
100
AcDbEntity
  8
A-HATCH
100
AcDbVertex
100
AcDb2dVertex
 10
-5.694955
 20
3.135059
 30
0.0
 70
     8
  0
VERTEX
  5
1462
100
AcDbEntity
  8
A-HATCH
100
AcDbVertex
100
AcDb2dVertex
 10
-5.662911
 20
3.210488
 30
0.0
 70
     8
  0
VERTEX
  5
1463
100
AcDbEntity
  8
A-HATCH
100
AcDbVertex
100
AcDb2dVertex
 10
-5.663527
 20
3.286061
 30
0.0
 70
     8
  0
VERTEX
  5
1464
100
AcDbEntity
  8
A-HATCH
100
AcDbVertex
100
AcDb2dVertex
 10
-5.69038
 20
3.364534
 30
0.0
 70
     8
  0
VERTEX
  5
1465
100
AcDbEntity
  8
A-HATCH
100
AcDbVertex
100
AcDb2dVertex
 10
-5.740214
 20
3.445731
 30
0.0
 70
     8
  0
VERTEX
  5
1466
100
AcDbEntity
  8
A-HATCH
100
AcDbVertex
100
AcDb2dVertex
 10
-5.810561
 20
3.528745
 30
0.0
 70
     8
  0
VERTEX
  5
1467
100
AcDbEntity
  8
A-HATCH
100
AcDbVertex
100
AcDb2dVertex
 10
-5.898955
 20
3.612667
 30
0.0
 70
     8
  0
VERTEX
  5
1468
100
AcDbEntity
  8
A-HATCH
100
AcDbVertex
100
AcDb2dVertex
 10
-6.002928
 20
3.696589
 30
0.0
 70
     8
  0
VERTEX
  5
1469
100
AcDbEntity
  8
A-HATCH
100
AcDbVertex
100
AcDb2dVertex
 10
-6.120014
 20
3.779603
 30
0.0
 70
     8
  0
VERTEX
  5
146A
100
AcDbEntity
  8
A-HATCH
100
AcDbVertex
100
AcDb2dVertex
 10
-6.247747
 20
3.860801
 30
0.0
 70
     8
  0
VERTEX
  5
146B
100
AcDbEntity
  8
A-HATCH
100
AcDbVertex
100
AcDb2dVertex
 10
-6.383659
 20
3.939274
 30
0.0
 70
     8
  0
VERTEX
  5
146C
100
AcDbEntity
  8
A-HATCH
100
AcDbVertex
100
AcDb2dVertex
 10
-6.526557
 20
4.013243
 30
0.0
 70
     8
  0
VERTEX
  5
146D
100
AcDbEntity
  8
A-HATCH
100
AcDbVertex
100
AcDb2dVertex
 10
-6.680341
 20
4.077451
 30
0.0
 70
     8
  0
VERTEX
  5
146E
100
AcDbEntity
  8
A-HATCH
100
AcDbVertex
100
AcDb2dVertex
 10
-6.850185
 20
4.125766
 30
0.0
 70
     8
  0
VERTEX
  5
146F
100
AcDbEntity
  8
A-HATCH
100
AcDbVertex
100
AcDb2dVertex
 10
-7.041263
 20
4.15206
 30
0.0
 70
     8
  0
VERTEX
  5
1470
100
AcDbEntity
  8
A-HATCH
100
AcDbVertex
100
AcDb2dVertex
 10
-7.258747
 20
4.150202
 30
0.0
 70
     8
  0
VERTEX
  5
1471
100
AcDbEntity
  8
A-HATCH
100
AcDbVertex
100
AcDb2dVertex
 10
-7.507813
 20
4.114062
 30
0.0
 70
     8
  0
VERTEX
  5
1472
100
AcDbEntity
  8
A-HATCH
100
AcDbVertex
100
AcDb2dVertex
 10
-7.793632
 20
4.037512
 30
0.0
 70
     8
  0
VERTEX
  5
1473
100
AcDbEntity
  8
A-HATCH
100
AcDbVertex
100
AcDb2dVertex
 10
-8.12138
 20
3.914422
 30
0.0
 70
     8
  0
VERTEX
  5
1474
100
AcDbEntity
  8
A-HATCH
100
AcDbVertex
100
AcDb2dVertex
 10
-5.857409
 20
2.915169
 30
0.0
 70
    16
  0
VERTEX
  5
1475
100
AcDbEntity
  8
A-HATCH
100
AcDbVertex
100
AcDb2dVertex
 10
-5.392092
 20
3.247311
 30
0.0
 70
    16
  0
VERTEX
  5
1476
100
AcDbEntity
  8
A-HATCH
100
AcDbVertex
100
AcDb2dVertex
 10
-6.322725
 20
3.978023
 30
0.0
 70
    16
  0
VERTEX
  5
1477
100
AcDbEntity
  8
A-HATCH
100
AcDbVertex
100
AcDb2dVertex
 10
-7.186883
 20
4.310166
 30
0.0
 70
    16
  0
VERTEX
  5
1478
100
AcDbEntity
  8
A-HATCH
100
AcDbVertex
100
AcDb2dVertex
 10
-8.12138
 20
3.914422
 30
0.0
 70
    16
  0
SEQEND
  5
1479
100
AcDbEntity
  8
A-HATCH
  0
POLYLINE
  5
147A
100
AcDbEntity
  8
A-HATCH
100
AcDb2dPolyline
 66
     1
 10
0.0
 20
0.0
 30
0.0
 70
     4
 75
     6
  0
VERTEX
  5
147B
100
AcDbEntity
  8
A-HATCH
100
AcDbVertex
100
AcDb2dVertex
 10
-3.95158
 20
7.875528
 30
0.0
 70
    16
  0
VERTEX
  5
147C
100
AcDbEntity
  8
A-HATCH
100
AcDbVertex
100
AcDb2dVertex
 10
-3.95158
 20
7.875528
 30
0.0
 70
     8
  0
VERTEX
  5
147D
100
AcDbEntity
  8
A-HATCH
100
AcDbVertex
100
AcDb2dVertex
 10
-4.472546
 20
7.833023
 30
0.0
 70
     8
  0
VERTEX
  5
147E
100
AcDbEntity
  8
A-HATCH
100
AcDbVertex
100
AcDb2dVertex
 10
-4.911438
 20
7.789511
 30
0.0
 70
     8
  0
VERTEX
  5
147F
100
AcDbEntity
  8
A-HATCH
100
AcDbVertex
100
AcDb2dVertex
 10
-5.277607
 20
7.746025
 30
0.0
 70
     8
  0
VERTEX
  5
1480
100
AcDbEntity
  8
A-HATCH
100
AcDbVertex
100
AcDb2dVertex
 10
-5.580404
 20
7.703598
 30
0.0
 70
     8
  0
VERTEX
  5
1481
100
AcDbEntity
  8
A-HATCH
100
AcDbVertex
100
AcDb2dVertex
 10
-5.829179
 20
7.663265
 30
0.0
 70
     8
  0
VERTEX
  5
1482
100
AcDbEntity
  8
A-HATCH
100
AcDbVertex
100
AcDb2dVertex
 10
-6.033283
 20
7.626058
 30
0.0
 70
     8
  0
VERTEX
  5
1483
100
AcDbEntity
  8
A-HATCH
100
AcDbVertex
100
AcDb2dVertex
 10
-6.202067
 20
7.593012
 30
0.0
 70
     8
  0
VERTEX
  5
1484
100
AcDbEntity
  8
A-HATCH
100
AcDbVertex
100
AcDb2dVertex
 10
-6.344883
 20
7.565159
 30
0.0
 70
     8
  0
VERTEX
  5
1485
100
AcDbEntity
  8
A-HATCH
100
AcDbVertex
100
AcDb2dVertex
 10
-6.470018
 20
7.543233
 30
0.0
 70
     8
  0
VERTEX
  5
1486
100
AcDbEntity
  8
A-HATCH
100
AcDbVertex
100
AcDb2dVertex
 10
-6.581522
 20
7.526755
 30
0.0
 70
     8
  0
VERTEX
  5
1487
100
AcDbEntity
  8
A-HATCH
100
AcDbVertex
100
AcDb2dVertex
 10
-6.682379
 20
7.514949
 30
0.0
 70
     8
  0
VERTEX
  5
1488
100
AcDbEntity
  8
A-HATCH
100
AcDbVertex
100
AcDb2dVertex
 10
-6.775577
 20
7.507035
 30
0.0
 70
     8
  0
VERTEX
  5
1489
100
AcDbEntity
  8
A-HATCH
100
AcDbVertex
100
AcDb2dVertex
 10
-6.8641
 20
7.502234
 30
0.0
 70
     8
  0
VERTEX
  5
148A
100
AcDbEntity
  8
A-HATCH
100
AcDbVertex
100
AcDb2dVertex
 10
-6.950936
 20
7.499769
 30
0.0
 70
     8
  0
VERTEX
  5
148B
100
AcDbEntity
  8
A-HATCH
100
AcDbVertex
100
AcDb2dVertex
 10
-7.03907
 20
7.498861
 30
0.0
 70
     8
  0
VERTEX
  5
148C
100
AcDbEntity
  8
A-HATCH
100
AcDbVertex
100
AcDb2dVertex
 10
-7.131488
 20
7.498731
 30
0.0
 70
     8
  0
VERTEX
  5
148D
100
AcDbEntity
  8
A-HATCH
100
AcDbVertex
100
AcDb2dVertex
 10
-7.230593
 20
7.498774
 30
0.0
 70
     8
  0
VERTEX
  5
148E
100
AcDbEntity
  8
A-HATCH
100
AcDbVertex
100
AcDb2dVertex
 10
-7.336449
 20
7.499077
 30
0.0
 70
     8
  0
VERTEX
  5
148F
100
AcDbEntity
  8
A-HATCH
100
AcDbVertex
100
AcDb2dVertex
 10
-7.448537
 20
7.499899
 30
0.0
 70
     8
  0
VERTEX
  5
1490
100
AcDbEntity
  8
A-HATCH
100
AcDbVertex
100
AcDb2dVertex
 10
-7.566337
 20
7.501499
 30
0.0
 70
     8
  0
VERTEX
  5
1491
100
AcDbEntity
  8
A-HATCH
100
AcDbVertex
100
AcDb2dVertex
 10
-7.689331
 20
7.504137
 30
0.0
 70
     8
  0
VERTEX
  5
1492
100
AcDbEntity
  8
A-HATCH
100
AcDbVertex
100
AcDb2dVertex
 10
-7.816999
 20
7.508072
 30
0.0
 70
     8
  0
VERTEX
  5
1493
100
AcDbEntity
  8
A-HATCH
100
AcDbVertex
100
AcDb2dVertex
 10
-7.948821
 20
7.513565
 30
0.0
 70
     8
  0
VERTEX
  5
1494
100
AcDbEntity
  8
A-HATCH
100
AcDbVertex
100
AcDb2dVertex
 10
-8.084278
 20
7.520874
 30
0.0
 70
     8
  0
VERTEX
  5
1495
100
AcDbEntity
  8
A-HATCH
100
AcDbVertex
100
AcDb2dVertex
 10
-8.222971
 20
7.530226
 30
0.0
 70
     8
  0
VERTEX
  5
1496
100
AcDbEntity
  8
A-HATCH
100
AcDbVertex
100
AcDb2dVertex
 10
-8.364974
 20
7.541719
 30
0.0
 70
     8
  0
VERTEX
  5
1497
100
AcDbEntity
  8
A-HATCH
100
AcDbVertex
100
AcDb2dVertex
 10
-8.510483
 20
7.555418
 30
0.0
 70
     8
  0
VERTEX
  5
1498
100
AcDbEntity
  8
A-HATCH
100
AcDbVertex
100
AcDb2dVertex
 10
-8.659692
 20
7.571387
 30
0.0
 70
     8
  0
VERTEX
  5
1499
100
AcDbEntity
  8
A-HATCH
100
AcDbVertex
100
AcDb2dVertex
 10
-8.812796
 20
7.589692
 30
0.0
 70
     8
  0
VERTEX
  5
149A
100
AcDbEntity
  8
A-HATCH
100
AcDbVertex
100
AcDb2dVertex
 10
-8.969989
 20
7.610396
 30
0.0
 70
     8
  0
VERTEX
  5
149B
100
AcDbEntity
  8
A-HATCH
100
AcDbVertex
100
AcDb2dVertex
 10
-9.131467
 20
7.633566
 30
0.0
 70
     8
  0
VERTEX
  5
149C
100
AcDbEntity
  8
A-HATCH
100
AcDbVertex
100
AcDb2dVertex
 10
-9.297424
 20
7.659266
 30
0.0
 70
     8
  0
VERTEX
  5
149D
100
AcDbEntity
  8
A-HATCH
100
AcDbVertex
100
AcDb2dVertex
 10
-9.470607
 20
7.687386
 30
0.0
 70
     8
  0
VERTEX
  5
149E
100
AcDbEntity
  8
A-HATCH
100
AcDbVertex
100
AcDb2dVertex
 10
-9.663972
 20
7.717119
 30
0.0
 70
     8
  0
VERTEX
  5
149F
100
AcDbEntity
  8
A-HATCH
100
AcDbVertex
100
AcDb2dVertex
 10
-9.893026
 20
7.747481
 30
0.0
 70
     8
  0
VERTEX
  5
14A0
100
AcDbEntity
  8
A-HATCH
100
AcDbVertex
100
AcDb2dVertex
 10
-10.173278
 20
7.77749
 30
0.0
 70
     8
  0
VERTEX
  5
14A1
100
AcDbEntity
  8
A-HATCH
100
AcDbVertex
100
AcDb2dVertex
 10
-10.520234
 20
7.806163
 30
0.0
 70
     8
  0
VERTEX
  5
14A2
100
AcDbEntity
  8
A-HATCH
100
AcDbVertex
100
AcDb2dVertex
 10
-10.949403
 20
7.832519
 30
0.0
 70
     8
  0
VERTEX
  5
14A3
100
AcDbEntity
  8
A-HATCH
100
AcDbVertex
100
AcDb2dVertex
 10
-11.476292
 20
7.855573
 30
0.0
 70
     8
  0
VERTEX
  5
14A4
100
AcDbEntity
  8
A-HATCH
100
AcDbVertex
100
AcDb2dVertex
 10
-12.11641
 20
7.874344
 30
0.0
 70
     8
  0
VERTEX
  5
14A5
100
AcDbEntity
  8
A-HATCH
100
AcDbVertex
100
AcDb2dVertex
 10
-5.458566
 20
7.764445
 30
0.0
 70
    16
  0
VERTEX
  5
14A6
100
AcDbEntity
  8
A-HATCH
100
AcDbVertex
100
AcDb2dVertex
 10
-6.522146
 20
7.498731
 30
0.0
 70
    16
  0
VERTEX
  5
14A7
100
AcDbEntity
  8
A-HATCH
100
AcDbVertex
100
AcDb2dVertex
 10
-7.053936
 20
7.498731
 30
0.0
 70
    16
  0
VERTEX
  5
14A8
100
AcDbEntity
  8
A-HATCH
100
AcDbVertex
100
AcDb2dVertex
 10
-8.051042
 20
7.498731
 30
0.0
 70
    16
  0
VERTEX
  5
14A9
100
AcDbEntity
  8
A-HATCH
100
AcDbVertex
100
AcDb2dVertex
 10
-9.247569
 20
7.631588
 30
0.0
 70
    16
  0
VERTEX
  5
14AA
100
AcDbEntity
  8
A-HATCH
100
AcDbVertex
100
AcDb2dVertex
 10
-10.244675
 20
7.830873
 30
0.0
 70
    16
  0
VERTEX
  5
14AB
100
AcDbEntity
  8
A-HATCH
100
AcDbVertex
100
AcDb2dVertex
 10
-12.11641
 20
7.874344
 30
0.0
 70
    16
  0
SEQEND
  5
14AC
100
AcDbEntity
  8
A-HATCH
  0
POLYLINE
  5
14AD
100
AcDbEntity
  8
A-HATCH
100
AcDb2dPolyline
 66
     1
 10
0.0
 20
0.0
 30
0.0
 70
     4
 75
     6
  0
VERTEX
  5
14AE
100
AcDbEntity
  8
A-HATCH
100
AcDbVertex
100
AcDb2dVertex
 10
-4.748947
 20
8.672896
 30
0.0
 70
    16
  0
VERTEX
  5
14AF
100
AcDbEntity
  8
A-HATCH
100
AcDbVertex
100
AcDb2dVertex
 10
-4.748947
 20
8.672896
 30
0.0
 70
     8
  0
VERTEX
  5
14B0
100
AcDbEntity
  8
A-HATCH
100
AcDbVertex
100
AcDb2dVertex
 10
-5.508703
 20
8.510542
 30
0.0
 70
     8
  0
VERTEX
  5
14B1
100
AcDbEntity
  8
A-HATCH
100
AcDbVertex
100
AcDb2dVertex
 10
-6.166429
 20
8.400783
 30
0.0
 70
     8
  0
VERTEX
  5
14B2
100
AcDbEntity
  8
A-HATCH
100
AcDbVertex
100
AcDb2dVertex
 10
-6.733363
 20
8.335957
 30
0.0
 70
     8
  0
VERTEX
  5
14B3
100
AcDbEntity
  8
A-HATCH
100
AcDbVertex
100
AcDb2dVertex
 10
-7.220742
 20
8.308402
 30
0.0
 70
     8
  0
VERTEX
  5
14B4
100
AcDbEntity
  8
A-HATCH
100
AcDbVertex
100
AcDb2dVertex
 10
-7.639803
 20
8.310456
 30
0.0
 70
     8
  0
VERTEX
  5
14B5
100
AcDbEntity
  8
A-HATCH
100
AcDbVertex
100
AcDb2dVertex
 10
-8.001783
 20
8.334458
 30
0.0
 70
     8
  0
VERTEX
  5
14B6
100
AcDbEntity
  8
A-HATCH
100
AcDbVertex
100
AcDb2dVertex
 10
-8.31792
 20
8.372746
 30
0.0
 70
     8
  0
VERTEX
  5
14B7
100
AcDbEntity
  8
A-HATCH
100
AcDbVertex
100
AcDb2dVertex
 10
-8.59945
 20
8.417658
 30
0.0
 70
     8
  0
VERTEX
  5
14B8
100
AcDbEntity
  8
A-HATCH
100
AcDbVertex
100
AcDb2dVertex
 10
-8.856354
 20
8.462527
 30
0.0
 70
     8
  0
VERTEX
  5
14B9
100
AcDbEntity
  8
A-HATCH
100
AcDbVertex
100
AcDb2dVertex
 10
-9.093589
 20
8.504672
 30
0.0
 70
     8
  0
VERTEX
  5
14BA
100
AcDbEntity
  8
A-HATCH
100
AcDbVertex
100
AcDb2dVertex
 10
-9.314854
 20
8.542406
 30
0.0
 70
     8
  0
VERTEX
  5
14BB
100
AcDbEntity
  8
A-HATCH
100
AcDbVertex
100
AcDb2dVertex
 10
-9.52385
 20
8.574041
 30
0.0
 70
     8
  0
VERTEX
  5
14BC
100
AcDbEntity
  8
A-HATCH
100
AcDbVertex
100
AcDb2dVertex
 10
-9.724277
 20
8.597892
 30
0.0
 70
     8
  0
VERTEX
  5
14BD
100
AcDbEntity
  8
A-HATCH
100
AcDbVertex
100
AcDb2dVertex
 10
-9.919836
 20
8.612272
 30
0.0
 70
     8
  0
VERTEX
  5
14BE
100
AcDbEntity
  8
A-HATCH
100
AcDbVertex
100
AcDb2dVertex
 10
-10.114226
 20
8.615494
 30
0.0
 70
     8
  0
VERTEX
  5
14BF
100
AcDbEntity
  8
A-HATCH
100
AcDbVertex
100
AcDb2dVertex
 10
-10.311148
 20
8.605872
 30
0.0
 70
     8
  0
VERTEX
  5
14C0
100
AcDbEntity
  8
A-HATCH
100
AcDbVertex
100
AcDb2dVertex
 10
-10.514847
 20
8.582668
 30
0.0
 70
     8
  0
VERTEX
  5
14C1
100
AcDbEntity
  8
A-HATCH
100
AcDbVertex
100
AcDb2dVertex
 10
-10.731745
 20
8.548952
 30
0.0
 70
     8
  0
VERTEX
  5
14C2
100
AcDbEntity
  8
A-HATCH
100
AcDbVertex
100
AcDb2dVertex
 10
-10.968811
 20
8.50874
 30
0.0
 70
     8
  0
VERTEX
  5
14C3
100
AcDbEntity
  8
A-HATCH
100
AcDbVertex
100
AcDb2dVertex
 10
-11.233013
 20
8.466051
 30
0.0
 70
     8
  0
VERTEX
  5
14C4
100
AcDbEntity
  8
A-HATCH
100
AcDbVertex
100
AcDb2dVertex
 10
-11.531318
 20
8.424903
 30
0.0
 70
     8
  0
VERTEX
  5
14C5
100
AcDbEntity
  8
A-HATCH
100
AcDbVertex
100
AcDb2dVertex
 10
-11.870695
 20
8.389312
 30
0.0
 70
     8
  0
VERTEX
  5
14C6
100
AcDbEntity
  8
A-HATCH
100
AcDbVertex
100
AcDb2dVertex
 10
-12.258111
 20
8.363299
 30
0.0
 70
     8
  0
VERTEX
  5
14C7
100
AcDbEntity
  8
A-HATCH
100
AcDbVertex
100
AcDb2dVertex
 10
-12.700535
 20
8.350879
 30
0.0
 70
     8
  0
VERTEX
  5
14C8
100
AcDbEntity
  8
A-HATCH
100
AcDbVertex
100
AcDb2dVertex
 10
-6.920988
 20
8.163015
 30
0.0
 70
    16
  0
VERTEX
  5
14C9
100
AcDbEntity
  8
A-HATCH
100
AcDbVertex
100
AcDb2dVertex
 10
-8.848726
 20
8.428729
 30
0.0
 70
    16
  0
VERTEX
  5
14CA
100
AcDbEntity
  8
A-HATCH
100
AcDbVertex
100
AcDb2dVertex
 10
-10.244675
 20
8.760871
 30
0.0
 70
    16
  0
VERTEX
  5
14CB
100
AcDbEntity
  8
A-HATCH
100
AcDbVertex
100
AcDb2dVertex
 10
-11.441202
 20
8.362301
 30
0.0
 70
    16
  0
VERTEX
  5
14CC
100
AcDbEntity
  8
A-HATCH
100
AcDbVertex
100
AcDb2dVertex
 10
-12.700535
 20
8.350879
 30
0.0
 70
    16
  0
SEQEND
  5
14CD
100
AcDbEntity
  8
A-HATCH
  0
POLYLINE
  5
14CE
100
AcDbEntity
  8
A-HATCH
100
AcDb2dPolyline
 66
     1
 10
0.0
 20
0.0
 30
0.0
 70
     4
 75
     6
  0
VERTEX
  5
14CF
100
AcDbEntity
  8
A-HATCH
100
AcDbVertex
100
AcDb2dVertex
 10
-5.57962
 20
9.503568
 30
0.0
 70
    16
  0
VERTEX
  5
14D0
100
AcDbEntity
  8
A-HATCH
100
AcDbVertex
100
AcDb2dVertex
 10
-5.57962
 20
9.503568
 30
0.0
 70
     8
  0
VERTEX
  5
14D1
100
AcDbEntity
  8
A-HATCH
100
AcDbVertex
100
AcDb2dVertex
 10
-5.844226
 20
9.324351
 30
0.0
 70
     8
  0
VERTEX
  5
14D2
100
AcDbEntity
  8
A-HATCH
100
AcDbVertex
100
AcDb2dVertex
 10
-6.126422
 20
9.190619
 30
0.0
 70
     8
  0
VERTEX
  5
14D3
100
AcDbEntity
  8
A-HATCH
100
AcDbVertex
100
AcDb2dVertex
 10
-6.419986
 20
9.096912
 30
0.0
 70
     8
  0
VERTEX
  5
14D4
100
AcDbEntity
  8
A-HATCH
100
AcDbVertex
100
AcDb2dVertex
 10
-6.718695
 20
9.03777
 30
0.0
 70
     8
  0
VERTEX
  5
14D5
100
AcDbEntity
  8
A-HATCH
100
AcDbVertex
100
AcDb2dVertex
 10
-7.016328
 20
9.007734
 30
0.0
 70
     8
  0
VERTEX
  5
14D6
100
AcDbEntity
  8
A-HATCH
100
AcDbVertex
100
AcDb2dVertex
 10
-7.306662
 20
9.001343
 30
0.0
 70
     8
  0
VERTEX
  5
14D7
100
AcDbEntity
  8
A-HATCH
100
AcDbVertex
100
AcDb2dVertex
 10
-7.583474
 20
9.013137
 30
0.0
 70
     8
  0
VERTEX
  5
14D8
100
AcDbEntity
  8
A-HATCH
100
AcDbVertex
100
AcDb2dVertex
 10
-7.840542
 20
9.037656
 30
0.0
 70
     8
  0
VERTEX
  5
14D9
100
AcDbEntity
  8
A-HATCH
100
AcDbVertex
100
AcDb2dVertex
 10
-8.073265
 20
9.070049
 30
0.0
 70
     8
  0
VERTEX
  5
14DA
100
AcDbEntity
  8
A-HATCH
100
AcDbVertex
100
AcDb2dVertex
 10
-8.283527
 20
9.107891
 30
0.0
 70
     8
  0
VERTEX
  5
14DB
100
AcDbEntity
  8
A-HATCH
100
AcDbVertex
100
AcDb2dVertex
 10
-8.474833
 20
9.149365
 30
0.0
 70
     8
  0
VERTEX
  5
14DC
100
AcDbEntity
  8
A-HATCH
100
AcDbVertex
100
AcDb2dVertex
 10
-8.65069
 20
9.192656
 30
0.0
 70
     8
  0
VERTEX
  5
14DD
100
AcDbEntity
  8
A-HATCH
100
AcDbVertex
100
AcDb2dVertex
 10
-8.814602
 20
9.235947
 30
0.0
 70
     8
  0
VERTEX
  5
14DE
100
AcDbEntity
  8
A-HATCH
100
AcDbVertex
100
AcDb2dVertex
 10
-8.970076
 20
9.277422
 30
0.0
 70
     8
  0
VERTEX
  5
14DF
100
AcDbEntity
  8
A-HATCH
100
AcDbVertex
100
AcDb2dVertex
 10
-9.120615
 20
9.315263
 30
0.0
 70
     8
  0
VERTEX
  5
14E0
100
AcDbEntity
  8
A-HATCH
100
AcDbVertex
100
AcDb2dVertex
 10
-9.269727
 20
9.347656
 30
0.0
 70
     8
  0
VERTEX
  5
14E1
100
AcDbEntity
  8
A-HATCH
100
AcDbVertex
100
AcDb2dVertex
 10
-9.419963
 20
9.373237
 30
0.0
 70
     8
  0
VERTEX
  5
14E2
100
AcDbEntity
  8
A-HATCH
100
AcDbVertex
100
AcDb2dVertex
 10
-9.57007
 20
9.39246
 30
0.0
 70
     8
  0
VERTEX
  5
14E3
100
AcDbEntity
  8
A-HATCH
100
AcDbVertex
100
AcDb2dVertex
 10
-9.71784
 20
9.406235
 30
0.0
 70
     8
  0
VERTEX
  5
14E4
100
AcDbEntity
  8
A-HATCH
100
AcDbVertex
100
AcDb2dVertex
 10
-9.861066
 20
9.415468
 30
0.0
 70
     8
  0
VERTEX
  5
14E5
100
AcDbEntity
  8
A-HATCH
100
AcDbVertex
100
AcDb2dVertex
 10
-9.997541
 20
9.421069
 30
0.0
 70
     8
  0
VERTEX
  5
14E6
100
AcDbEntity
  8
A-HATCH
100
AcDbVertex
100
AcDb2dVertex
 10
-10.125057
 20
9.423945
 30
0.0
 70
     8
  0
VERTEX
  5
14E7
100
AcDbEntity
  8
A-HATCH
100
AcDbVertex
100
AcDb2dVertex
 10
-10.241407
 20
9.425004
 30
0.0
 70
     8
  0
VERTEX
  5
14E8
100
AcDbEntity
  8
A-HATCH
100
AcDbVertex
100
AcDb2dVertex
 10
-10.344385
 20
9.425156
 30
0.0
 70
     8
  0
VERTEX
  5
14E9
100
AcDbEntity
  8
A-HATCH
100
AcDbVertex
100
AcDb2dVertex
 10
-10.432757
 20
9.425415
 30
0.0
 70
     8
  0
VERTEX
  5
14EA
100
AcDbEntity
  8
A-HATCH
100
AcDbVertex
100
AcDb2dVertex
 10
-10.509185
 20
9.427231
 30
0.0
 70
     8
  0
VERTEX
  5
14EB
100
AcDbEntity
  8
A-HATCH
100
AcDbVertex
100
AcDb2dVertex
 10
-10.577303
 20
9.432162
 30
0.0
 70
     8
  0
VERTEX
  5
14EC
100
AcDbEntity
  8
A-HATCH
100
AcDbVertex
100
AcDb2dVertex
 10
-10.640748
 20
9.441763
 30
0.0
 70
     8
  0
VERTEX
  5
14ED
100
AcDbEntity
  8
A-HATCH
100
AcDbVertex
100
AcDb2dVertex
 10
-10.703153
 20
9.457591
 30
0.0
 70
     8
  0
VERTEX
  5
14EE
100
AcDbEntity
  8
A-HATCH
100
AcDbVertex
100
AcDb2dVertex
 10
-10.768155
 20
9.481205
 30
0.0
 70
     8
  0
VERTEX
  5
14EF
100
AcDbEntity
  8
A-HATCH
100
AcDbVertex
100
AcDb2dVertex
 10
-10.83939
 20
9.514159
 30
0.0
 70
     8
  0
VERTEX
  5
14F0
100
AcDbEntity
  8
A-HATCH
100
AcDbVertex
100
AcDb2dVertex
 10
-10.920491
 20
9.558012
 30
0.0
 70
     8
  0
VERTEX
  5
14F1
100
AcDbEntity
  8
A-HATCH
100
AcDbVertex
100
AcDb2dVertex
 10
-11.014651
 20
9.613543
 30
0.0
 70
     8
  0
VERTEX
  5
14F2
100
AcDbEntity
  8
A-HATCH
100
AcDbVertex
100
AcDb2dVertex
 10
-11.123288
 20
9.678414
 30
0.0
 70
     8
  0
VERTEX
  5
14F3
100
AcDbEntity
  8
A-HATCH
100
AcDbVertex
100
AcDb2dVertex
 10
-11.247374
 20
9.749513
 30
0.0
 70
     8
  0
VERTEX
  5
14F4
100
AcDbEntity
  8
A-HATCH
100
AcDbVertex
100
AcDb2dVertex
 10
-11.387885
 20
9.823726
 30
0.0
 70
     8
  0
VERTEX
  5
14F5
100
AcDbEntity
  8
A-HATCH
100
AcDbVertex
100
AcDb2dVertex
 10
-11.545792
 20
9.897939
 30
0.0
 70
     8
  0
VERTEX
  5
14F6
100
AcDbEntity
  8
A-HATCH
100
AcDbVertex
100
AcDb2dVertex
 10
-11.722071
 20
9.969038
 30
0.0
 70
     8
  0
VERTEX
  5
14F7
100
AcDbEntity
  8
A-HATCH
100
AcDbVertex
100
AcDb2dVertex
 10
-11.917694
 20
10.03391
 30
0.0
 70
     8
  0
VERTEX
  5
14F8
100
AcDbEntity
  8
A-HATCH
100
AcDbVertex
100
AcDb2dVertex
 10
-12.133637
 20
10.08944
 30
0.0
 70
     8
  0
VERTEX
  5
14F9
100
AcDbEntity
  8
A-HATCH
100
AcDbVertex
100
AcDb2dVertex
 10
-12.371131
 20
10.132705
 30
0.0
 70
     8
  0
VERTEX
  5
14FA
100
AcDbEntity
  8
A-HATCH
100
AcDbVertex
100
AcDb2dVertex
 10
-12.632448
 20
10.161545
 30
0.0
 70
     8
  0
VERTEX
  5
14FB
100
AcDbEntity
  8
A-HATCH
100
AcDbVertex
100
AcDb2dVertex
 10
-12.920121
 20
10.17399
 30
0.0
 70
     8
  0
VERTEX
  5
14FC
100
AcDbEntity
  8
A-HATCH
100
AcDbVertex
100
AcDb2dVertex
 10
-13.236679
 20
10.168069
 30
0.0
 70
     8
  0
VERTEX
  5
14FD
100
AcDbEntity
  8
A-HATCH
100
AcDbVertex
100
AcDb2dVertex
 10
-13.584654
 20
10.141813
 30
0.0
 70
     8
  0
VERTEX
  5
14FE
100
AcDbEntity
  8
A-HATCH
100
AcDbVertex
100
AcDb2dVertex
 10
-13.966578
 20
10.093251
 30
0.0
 70
     8
  0
VERTEX
  5
14FF
100
AcDbEntity
  8
A-HATCH
100
AcDbVertex
100
AcDb2dVertex
 10
-14.38498
 20
10.020413
 30
0.0
 70
     8
  0
VERTEX
  5
1500
100
AcDbEntity
  8
A-HATCH
100
AcDbVertex
100
AcDb2dVertex
 10
-14.842394
 20
9.921331
 30
0.0
 70
     8
  0
VERTEX
  5
1501
100
AcDbEntity
  8
A-HATCH
100
AcDbVertex
100
AcDb2dVertex
 10
-6.256251
 20
8.960157
 30
0.0
 70
    16
  0
VERTEX
  5
1502
100
AcDbEntity
  8
A-HATCH
100
AcDbVertex
100
AcDb2dVertex
 10
-8.117515
 20
8.960157
 30
0.0
 70
    16
  0
VERTEX
  5
1503
100
AcDbEntity
  8
A-HATCH
100
AcDbVertex
100
AcDb2dVertex
 10
-9.247569
 20
9.425156
 30
0.0
 70
    16
  0
VERTEX
  5
1504
100
AcDbEntity
  8
A-HATCH
100
AcDbVertex
100
AcDb2dVertex
 10
-10.51057
 20
9.425156
 30
0.0
 70
    16
  0
VERTEX
  5
1505
100
AcDbEntity
  8
A-HATCH
100
AcDbVertex
100
AcDb2dVertex
 10
-10.776465
 20
9.425156
 30
0.0
 70
    16
  0
VERTEX
  5
1506
100
AcDbEntity
  8
A-HATCH
100
AcDbVertex
100
AcDb2dVertex
 10
-11.906518
 20
10.222297
 30
0.0
 70
    16
  0
VERTEX
  5
1507
100
AcDbEntity
  8
A-HATCH
100
AcDbVertex
100
AcDb2dVertex
 10
-13.568361
 20
10.222297
 30
0.0
 70
    16
  0
VERTEX
  5
1508
100
AcDbEntity
  8
A-HATCH
100
AcDbVertex
100
AcDb2dVertex
 10
-14.842394
 20
9.921331
 30
0.0
 70
    16
  0
SEQEND
  5
1509
100
AcDbEntity
  8
A-HATCH
  0
POLYLINE
  5
150A
100
AcDbEntity
  8
A-HATCH
100
AcDb2dPolyline
 66
     1
 10
0.0
 20
0.0
 30
0.0
 70
     4
 75
     6
  0
VERTEX
  5
150B
100
AcDbEntity
  8
A-HATCH
100
AcDbVertex
100
AcDb2dVertex
 10
-6.044778
 20
9.968726
 30
0.0
 70
    16
  0
VERTEX
  5
150C
100
AcDbEntity
  8
A-HATCH
100
AcDbVertex
100
AcDb2dVertex
 10
-6.044778
 20
9.968726
 30
0.0
 70
     8
  0
VERTEX
  5
150D
100
AcDbEntity
  8
A-HATCH
100
AcDbVertex
100
AcDb2dVertex
 10
-6.659115
 20
9.862664
 30
0.0
 70
     8
  0
VERTEX
  5
150E
100
AcDbEntity
  8
A-HATCH
100
AcDbVertex
100
AcDb2dVertex
 10
-7.24533
 20
9.799181
 30
0.0
 70
     8
  0
VERTEX
  5
150F
100
AcDbEntity
  8
A-HATCH
100
AcDbVertex
100
AcDb2dVertex
 10
-7.801354
 20
9.77301
 30
0.0
 70
     8
  0
VERTEX
  5
1510
100
AcDbEntity
  8
A-HATCH
100
AcDbVertex
100
AcDb2dVertex
 10
-8.325124
 20
9.778883
 30
0.0
 70
     8
  0
VERTEX
  5
1511
100
AcDbEntity
  8
A-HATCH
100
AcDbVertex
100
AcDb2dVertex
 10
-8.814573
 20
9.811533
 30
0.0
 70
     8
  0
VERTEX
  5
1512
100
AcDbEntity
  8
A-HATCH
100
AcDbVertex
100
AcDb2dVertex
 10
-9.267634
 20
9.865693
 30
0.0
 70
     8
  0
VERTEX
  5
1513
100
AcDbEntity
  8
A-HATCH
100
AcDbVertex
100
AcDb2dVertex
 10
-9.682243
 20
9.936097
 30
0.0
 70
     8
  0
VERTEX
  5
1514
100
AcDbEntity
  8
A-HATCH
100
AcDbVertex
100
AcDb2dVertex
 10
-10.056333
 20
10.017476
 30
0.0
 70
     8
  0
VERTEX
  5
1515
100
AcDbEntity
  8
A-HATCH
100
AcDbVertex
100
AcDb2dVertex
 10
-10.389069
 20
10.104977
 30
0.0
 70
     8
  0
VERTEX
  5
1516
100
AcDbEntity
  8
A-HATCH
100
AcDbVertex
100
AcDb2dVertex
 10
-10.684544
 20
10.195397
 30
0.0
 70
     8
  0
VERTEX
  5
1517
100
AcDbEntity
  8
A-HATCH
100
AcDbVertex
100
AcDb2dVertex
 10
-10.94808
 20
10.285947
 30
0.0
 70
     8
  0
VERTEX
  5
1518
100
AcDbEntity
  8
A-HATCH
100
AcDbVertex
100
AcDb2dVertex
 10
-11.185001
 20
10.373837
 30
0.0
 70
     8
  0
VERTEX
  5
1519
100
AcDbEntity
  8
A-HATCH
100
AcDbVertex
100
AcDb2dVertex
 10
-11.400629
 20
10.456278
 30
0.0
 70
     8
  0
VERTEX
  5
151A
100
AcDbEntity
  8
A-HATCH
100
AcDbVertex
100
AcDb2dVertex
 10
-11.600289
 20
10.53048
 30
0.0
 70
     8
  0
VERTEX
  5
151B
100
AcDbEntity
  8
A-HATCH
100
AcDbVertex
100
AcDb2dVertex
 10
-11.789302
 20
10.593654
 30
0.0
 70
     8
  0
VERTEX
  5
151C
100
AcDbEntity
  8
A-HATCH
100
AcDbVertex
100
AcDb2dVertex
 10
-11.972992
 20
10.64301
 30
0.0
 70
     8
  0
VERTEX
  5
151D
100
AcDbEntity
  8
A-HATCH
100
AcDbVertex
100
AcDb2dVertex
 10
-12.156
 20
10.676733
 30
0.0
 70
     8
  0
VERTEX
  5
151E
100
AcDbEntity
  8
A-HATCH
100
AcDbVertex
100
AcDb2dVertex
 10
-12.340242
 20
10.696897
 30
0.0
 70
     8
  0
VERTEX
  5
151F
100
AcDbEntity
  8
A-HATCH
100
AcDbVertex
100
AcDb2dVertex
 10
-12.52695
 20
10.706552
 30
0.0
 70
     8
  0
VERTEX
  5
1520
100
AcDbEntity
  8
A-HATCH
100
AcDbVertex
100
AcDb2dVertex
 10
-12.717359
 20
10.708747
 30
0.0
 70
     8
  0
VERTEX
  5
1521
100
AcDbEntity
  8
A-HATCH
100
AcDbVertex
100
AcDb2dVertex
 10
-12.912701
 20
10.70653
 30
0.0
 70
     8
  0
VERTEX
  5
1522
100
AcDbEntity
  8
A-HATCH
100
AcDbVertex
100
AcDb2dVertex
 10
-13.11421
 20
10.702952
 30
0.0
 70
     8
  0
VERTEX
  5
1523
100
AcDbEntity
  8
A-HATCH
100
AcDbVertex
100
AcDb2dVertex
 10
-13.32312
 20
10.70106
 30
0.0
 70
     8
  0
VERTEX
  5
1524
100
AcDbEntity
  8
A-HATCH
100
AcDbVertex
100
AcDb2dVertex
 10
-13.540664
 20
10.703903
 30
0.0
 70
     8
  0
VERTEX
  5
1525
100
AcDbEntity
  8
A-HATCH
100
AcDbVertex
100
AcDb2dVertex
 10
-13.769496
 20
10.713916
 30
0.0
 70
     8
  0
VERTEX
  5
1526
100
AcDbEntity
  8
A-HATCH
100
AcDbVertex
100
AcDb2dVertex
 10
-14.017956
 20
10.731068
 30
0.0
 70
     8
  0
VERTEX
  5
1527
100
AcDbEntity
  8
A-HATCH
100
AcDbVertex
100
AcDb2dVertex
 10
-14.295807
 20
10.754716
 30
0.0
 70
     8
  0
VERTEX
  5
1528
100
AcDbEntity
  8
A-HATCH
100
AcDbVertex
100
AcDb2dVertex
 10
-14.612808
 20
10.784214
 30
0.0
 70
     8
  0
VERTEX
  5
1529
100
AcDbEntity
  8
A-HATCH
100
AcDbVertex
100
AcDb2dVertex
 10
-14.978722
 20
10.818919
 30
0.0
 70
     8
  0
VERTEX
  5
152A
100
AcDbEntity
  8
A-HATCH
100
AcDbVertex
100
AcDb2dVertex
 10
-15.40331
 20
10.858184
 30
0.0
 70
     8
  0
VERTEX
  5
152B
100
AcDbEntity
  8
A-HATCH
100
AcDbVertex
100
AcDb2dVertex
 10
-15.896333
 20
10.901367
 30
0.0
 70
     8
  0
VERTEX
  5
152C
100
AcDbEntity
  8
A-HATCH
100
AcDbVertex
100
AcDb2dVertex
 10
-16.467553
 20
10.947822
 30
0.0
 70
     8
  0
VERTEX
  5
152D
100
AcDbEntity
  8
A-HATCH
100
AcDbVertex
100
AcDb2dVertex
 10
-7.718673
 20
9.624441
 30
0.0
 70
    16
  0
VERTEX
  5
152E
100
AcDbEntity
  8
A-HATCH
100
AcDbVertex
100
AcDb2dVertex
 10
-10.51057
 20
9.956583
 30
0.0
 70
    16
  0
VERTEX
  5
152F
100
AcDbEntity
  8
A-HATCH
100
AcDbVertex
100
AcDb2dVertex
 10
-11.972992
 20
10.820153
 30
0.0
 70
    16
  0
VERTEX
  5
1530
100
AcDbEntity
  8
A-HATCH
100
AcDbVertex
100
AcDb2dVertex
 10
-13.435414
 20
10.620867
 30
0.0
 70
    16
  0
VERTEX
  5
1531
100
AcDbEntity
  8
A-HATCH
100
AcDbVertex
100
AcDb2dVertex
 10
-14.831362
 20
10.820153
 30
0.0
 70
    16
  0
VERTEX
  5
1532
100
AcDbEntity
  8
A-HATCH
100
AcDbVertex
100
AcDb2dVertex
 10
-16.467553
 20
10.947822
 30
0.0
 70
    16
  0
SEQEND
  5
1533
100
AcDbEntity
  8
A-HATCH
  0
POLYLINE
  5
1534
100
AcDbEntity
  8
A-HATCH
100
AcDb2dPolyline
 66
     1
 10
0.0
 20
0.0
 30
0.0
 70
     4
 75
     6
  0
VERTEX
  5
1535
100
AcDbEntity
  8
A-HATCH
100
AcDbVertex
100
AcDb2dVertex
 10
-6.676029
 20
10.599977
 30
0.0
 70
    16
  0
VERTEX
  5
1536
100
AcDbEntity
  8
A-HATCH
100
AcDbVertex
100
AcDb2dVertex
 10
-6.676029
 20
10.599977
 30
0.0
 70
     8
  0
VERTEX
  5
1537
100
AcDbEntity
  8
A-HATCH
100
AcDbVertex
100
AcDb2dVertex
 10
-7.1213
 20
10.459441
 30
0.0
 70
     8
  0
VERTEX
  5
1538
100
AcDbEntity
  8
A-HATCH
100
AcDbVertex
100
AcDb2dVertex
 10
-7.526872
 20
10.366754
 30
0.0
 70
     8
  0
VERTEX
  5
1539
100
AcDbEntity
  8
A-HATCH
100
AcDbVertex
100
AcDb2dVertex
 10
-7.894707
 20
10.315672
 30
0.0
 70
     8
  0
VERTEX
  5
153A
100
AcDbEntity
  8
A-HATCH
100
AcDbVertex
100
AcDb2dVertex
 10
-8.226767
 20
10.299953
 30
0.0
 70
     8
  0
VERTEX
  5
153B
100
AcDbEntity
  8
A-HATCH
100
AcDbVertex
100
AcDb2dVertex
 10
-8.525014
 20
10.313356
 30
0.0
 70
     8
  0
VERTEX
  5
153C
100
AcDbEntity
  8
A-HATCH
100
AcDbVertex
100
AcDb2dVertex
 10
-8.791408
 20
10.349638
 30
0.0
 70
     8
  0
VERTEX
  5
153D
100
AcDbEntity
  8
A-HATCH
100
AcDbVertex
100
AcDb2dVertex
 10
-9.027913
 20
10.402556
 30
0.0
 70
     8
  0
VERTEX
  5
153E
100
AcDbEntity
  8
A-HATCH
100
AcDbVertex
100
AcDb2dVertex
 10
-9.23649
 20
10.465868
 30
0.0
 70
     8
  0
VERTEX
  5
153F
100
AcDbEntity
  8
A-HATCH
100
AcDbVertex
100
AcDb2dVertex
 10
-9.419574
 20
10.534156
 30
0.0
 70
     8
  0
VERTEX
  5
1540
100
AcDbEntity
  8
A-HATCH
100
AcDbVertex
100
AcDb2dVertex
 10
-9.581495
 20
10.605298
 30
0.0
 70
     8
  0
VERTEX
  5
1541
100
AcDbEntity
  8
A-HATCH
100
AcDbVertex
100
AcDb2dVertex
 10
-9.727058
 20
10.677998
 30
0.0
 70
     8
  0
VERTEX
  5
1542
100
AcDbEntity
  8
A-HATCH
100
AcDbVertex
100
AcDb2dVertex
 10
-9.861066
 20
10.750957
 30
0.0
 70
     8
  0
VERTEX
  5
1543
100
AcDbEntity
  8
A-HATCH
100
AcDbVertex
100
AcDb2dVertex
 10
-9.988322
 20
10.822877
 30
0.0
 70
     8
  0
VERTEX
  5
1544
100
AcDbEntity
  8
A-HATCH
100
AcDbVertex
100
AcDb2dVertex
 10
-10.113631
 20
10.892463
 30
0.0
 70
     8
  0
VERTEX
  5
1545
100
AcDbEntity
  8
A-HATCH
100
AcDbVertex
100
AcDb2dVertex
 10
-10.241797
 20
10.958416
 30
0.0
 70
     8
  0
VERTEX
  5
1546
100
AcDbEntity
  8
A-HATCH
100
AcDbVertex
100
AcDb2dVertex
 10
-10.377622
 20
11.019438
 30
0.0
 70
     8
  0
VERTEX
  5
1547
100
AcDbEntity
  8
A-HATCH
100
AcDbVertex
100
AcDb2dVertex
 10
-10.524764
 20
11.074493
 30
0.0
 70
     8
  0
VERTEX
  5
1548
100
AcDbEntity
  8
A-HATCH
100
AcDbVertex
100
AcDb2dVertex
 10
-10.682293
 20
11.123579
 30
0.0
 70
     8
  0
VERTEX
  5
1549
100
AcDbEntity
  8
A-HATCH
100
AcDbVertex
100
AcDb2dVertex
 10
-10.848131
 20
11.166956
 30
0.0
 70
     8
  0
VERTEX
  5
154A
100
AcDbEntity
  8
A-HATCH
100
AcDbVertex
100
AcDb2dVertex
 10
-11.020201
 20
11.204884
 30
0.0
 70
     8
  0
VERTEX
  5
154B
100
AcDbEntity
  8
A-HATCH
100
AcDbVertex
100
AcDb2dVertex
 10
-11.196426
 20
11.237623
 30
0.0
 70
     8
  0
VERTEX
  5
154C
100
AcDbEntity
  8
A-HATCH
100
AcDbVertex
100
AcDb2dVertex
 10
-11.374728
 20
11.265431
 30
0.0
 70
     8
  0
VERTEX
  5
154D
100
AcDbEntity
  8
A-HATCH
100
AcDbVertex
100
AcDb2dVertex
 10
-11.55303
 20
11.288569
 30
0.0
 70
     8
  0
VERTEX
  5
154E
100
AcDbEntity
  8
A-HATCH
100
AcDbVertex
100
AcDb2dVertex
 10
-11.729255
 20
11.307295
 30
0.0
 70
     8
  0
VERTEX
  5
154F
100
AcDbEntity
  8
A-HATCH
100
AcDbVertex
100
AcDb2dVertex
 10
-11.901757
 20
11.321913
 30
0.0
 70
     8
  0
VERTEX
  5
1550
100
AcDbEntity
  8
A-HATCH
100
AcDbVertex
100
AcDb2dVertex
 10
-12.070625
 20
11.332897
 30
0.0
 70
     8
  0
VERTEX
  5
1551
100
AcDbEntity
  8
A-HATCH
100
AcDbVertex
100
AcDb2dVertex
 10
-12.236377
 20
11.340769
 30
0.0
 70
     8
  0
VERTEX
  5
1552
100
AcDbEntity
  8
A-HATCH
100
AcDbVertex
100
AcDb2dVertex
 10
-12.399531
 20
11.346045
 30
0.0
 70
     8
  0
VERTEX
  5
1553
100
AcDbEntity
  8
A-HATCH
100
AcDbVertex
100
AcDb2dVertex
 10
-12.560609
 20
11.349245
 30
0.0
 70
     8
  0
VERTEX
  5
1554
100
AcDbEntity
  8
A-HATCH
100
AcDbVertex
100
AcDb2dVertex
 10
-12.720129
 20
11.350889
 30
0.0
 70
     8
  0
VERTEX
  5
1555
100
AcDbEntity
  8
A-HATCH
100
AcDbVertex
100
AcDb2dVertex
 10
-12.87861
 20
11.351494
 30
0.0
 70
     8
  0
VERTEX
  5
1556
100
AcDbEntity
  8
A-HATCH
100
AcDbVertex
100
AcDb2dVertex
 10
-13.036571
 20
11.35158
 30
0.0
 70
     8
  0
VERTEX
  5
1557
100
AcDbEntity
  8
A-HATCH
100
AcDbVertex
100
AcDb2dVertex
 10
-13.195106
 20
11.351775
 30
0.0
 70
     8
  0
VERTEX
  5
1558
100
AcDbEntity
  8
A-HATCH
100
AcDbVertex
100
AcDb2dVertex
 10
-13.357601
 20
11.353137
 30
0.0
 70
     8
  0
VERTEX
  5
1559
100
AcDbEntity
  8
A-HATCH
100
AcDbVertex
100
AcDb2dVertex
 10
-13.528016
 20
11.356835
 30
0.0
 70
     8
  0
VERTEX
  5
155A
100
AcDbEntity
  8
A-HATCH
100
AcDbVertex
100
AcDb2dVertex
 10
-13.71031
 20
11.364036
 30
0.0
 70
     8
  0
VERTEX
  5
155B
100
AcDbEntity
  8
A-HATCH
100
AcDbVertex
100
AcDb2dVertex
 10
-13.908444
 20
11.375907
 30
0.0
 70
     8
  0
VERTEX
  5
155C
100
AcDbEntity
  8
A-HATCH
100
AcDbVertex
100
AcDb2dVertex
 10
-14.126377
 20
11.393617
 30
0.0
 70
     8
  0
VERTEX
  5
155D
100
AcDbEntity
  8
A-HATCH
100
AcDbVertex
100
AcDb2dVertex
 10
-14.368069
 20
11.418333
 30
0.0
 70
     8
  0
VERTEX
  5
155E
100
AcDbEntity
  8
A-HATCH
100
AcDbVertex
100
AcDb2dVertex
 10
-14.63748
 20
11.451223
 30
0.0
 70
     8
  0
VERTEX
  5
155F
100
AcDbEntity
  8
A-HATCH
100
AcDbVertex
100
AcDb2dVertex
 10
-14.937714
 20
11.492597
 30
0.0
 70
     8
  0
VERTEX
  5
1560
100
AcDbEntity
  8
A-HATCH
100
AcDbVertex
100
AcDb2dVertex
 10
-15.268445
 20
11.539332
 30
0.0
 70
     8
  0
VERTEX
  5
1561
100
AcDbEntity
  8
A-HATCH
100
AcDbVertex
100
AcDb2dVertex
 10
-15.628495
 20
11.58745
 30
0.0
 70
     8
  0
VERTEX
  5
1562
100
AcDbEntity
  8
A-HATCH
100
AcDbVertex
100
AcDb2dVertex
 10
-16.016682
 20
11.632972
 30
0.0
 70
     8
  0
VERTEX
  5
1563
100
AcDbEntity
  8
A-HATCH
100
AcDbVertex
100
AcDb2dVertex
 10
-16.431825
 20
11.671918
 30
0.0
 70
     8
  0
VERTEX
  5
1564
100
AcDbEntity
  8
A-HATCH
100
AcDbVertex
100
AcDb2dVertex
 10
-16.872745
 20
11.700308
 30
0.0
 70
     8
  0
VERTEX
  5
1565
100
AcDbEntity
  8
A-HATCH
100
AcDbVertex
100
AcDb2dVertex
 10
-17.338261
 20
11.714163
 30
0.0
 70
     8
  0
VERTEX
  5
1566
100
AcDbEntity
  8
A-HATCH
100
AcDbVertex
100
AcDb2dVertex
 10
-17.827192
 20
11.709503
 30
0.0
 70
     8
  0
VERTEX
  5
1567
100
AcDbEntity
  8
A-HATCH
100
AcDbVertex
100
AcDb2dVertex
 10
-7.918094
 20
10.155868
 30
0.0
 70
    16
  0
VERTEX
  5
1568
100
AcDbEntity
  8
A-HATCH
100
AcDbVertex
100
AcDb2dVertex
 10
-9.513464
 20
10.421582
 30
0.0
 70
    16
  0
VERTEX
  5
1569
100
AcDbEntity
  8
A-HATCH
100
AcDbVertex
100
AcDb2dVertex
 10
-10.244675
 20
11.085867
 30
0.0
 70
    16
  0
VERTEX
  5
156A
100
AcDbEntity
  8
A-HATCH
100
AcDbVertex
100
AcDb2dVertex
 10
-11.77357
 20
11.35158
 30
0.0
 70
    16
  0
VERTEX
  5
156B
100
AcDbEntity
  8
A-HATCH
100
AcDbVertex
100
AcDb2dVertex
 10
-13.036571
 20
11.35158
 30
0.0
 70
    16
  0
VERTEX
  5
156C
100
AcDbEntity
  8
A-HATCH
100
AcDbVertex
100
AcDb2dVertex
 10
-14.299572
 20
11.35158
 30
0.0
 70
    16
  0
VERTEX
  5
156D
100
AcDbEntity
  8
A-HATCH
100
AcDbVertex
100
AcDb2dVertex
 10
-16.493205
 20
11.750151
 30
0.0
 70
    16
  0
VERTEX
  5
156E
100
AcDbEntity
  8
A-HATCH
100
AcDbVertex
100
AcDb2dVertex
 10
-17.827192
 20
11.709503
 30
0.0
 70
    16
  0
SEQEND
  5
156F
100
AcDbEntity
  8
A-HATCH
  0
POLYLINE
  5
1570
100
AcDbEntity
  8
A-HATCH
100
AcDb2dPolyline
 66
     1
 10
0.0
 20
0.0
 30
0.0
 70
     4
 75
     6
  0
VERTEX
  5
1571
100
AcDbEntity
  8
A-HATCH
100
AcDbVertex
100
AcDb2dVertex
 10
-7.34054
 20
11.264488
 30
0.0
 70
    16
  0
VERTEX
  5
1572
100
AcDbEntity
  8
A-HATCH
100
AcDbVertex
100
AcDb2dVertex
 10
-7.34054
 20
11.264488
 30
0.0
 70
     8
  0
VERTEX
  5
1573
100
AcDbEntity
  8
A-HATCH
100
AcDbVertex
100
AcDb2dVertex
 10
-7.745075
 20
11.155891
 30
0.0
 70
     8
  0
VERTEX
  5
1574
100
AcDbEntity
  8
A-HATCH
100
AcDbVertex
100
AcDb2dVertex
 10
-8.126771
 20
11.106644
 30
0.0
 70
     8
  0
VERTEX
  5
1575
100
AcDbEntity
  8
A-HATCH
100
AcDbVertex
100
AcDb2dVertex
 10
-8.485775
 20
11.106413
 30
0.0
 70
     8
  0
VERTEX
  5
1576
100
AcDbEntity
  8
A-HATCH
100
AcDbVertex
100
AcDb2dVertex
 10
-8.822233
 20
11.144868
 30
0.0
 70
     8
  0
VERTEX
  5
1577
100
AcDbEntity
  8
A-HATCH
100
AcDbVertex
100
AcDb2dVertex
 10
-9.136292
 20
11.211676
 30
0.0
 70
     8
  0
VERTEX
  5
1578
100
AcDbEntity
  8
A-HATCH
100
AcDbVertex
100
AcDb2dVertex
 10
-9.428099
 20
11.296506
 30
0.0
 70
     8
  0
VERTEX
  5
1579
100
AcDbEntity
  8
A-HATCH
100
AcDbVertex
100
AcDb2dVertex
 10
-9.6978
 20
11.389025
 30
0.0
 70
     8
  0
VERTEX
  5
157A
100
AcDbEntity
  8
A-HATCH
100
AcDbVertex
100
AcDb2dVertex
 10
-9.945543
 20
11.478902
 30
0.0
 70
     8
  0
VERTEX
  5
157B
100
AcDbEntity
  8
A-HATCH
100
AcDbVertex
100
AcDb2dVertex
 10
-10.171774
 20
11.557883
 30
0.0
 70
     8
  0
VERTEX
  5
157C
100
AcDbEntity
  8
A-HATCH
100
AcDbVertex
100
AcDb2dVertex
 10
-10.378142
 20
11.62603
 30
0.0
 70
     8
  0
VERTEX
  5
157D
100
AcDbEntity
  8
A-HATCH
100
AcDbVertex
100
AcDb2dVertex
 10
-10.566592
 20
11.685485
 30
0.0
 70
     8
  0
VERTEX
  5
157E
100
AcDbEntity
  8
A-HATCH
100
AcDbVertex
100
AcDb2dVertex
 10
-10.739073
 20
11.738388
 30
0.0
 70
     8
  0
VERTEX
  5
157F
100
AcDbEntity
  8
A-HATCH
100
AcDbVertex
100
AcDb2dVertex
 10
-10.897533
 20
11.786879
 30
0.0
 70
     8
  0
VERTEX
  5
1580
100
AcDbEntity
  8
A-HATCH
100
AcDbVertex
100
AcDb2dVertex
 10
-11.043918
 20
11.8331
 30
0.0
 70
     8
  0
VERTEX
  5
1581
100
AcDbEntity
  8
A-HATCH
100
AcDbVertex
100
AcDb2dVertex
 10
-11.180176
 20
11.879191
 30
0.0
 70
     8
  0
VERTEX
  5
1582
100
AcDbEntity
  8
A-HATCH
100
AcDbVertex
100
AcDb2dVertex
 10
-11.308255
 20
11.927293
 30
0.0
 70
     8
  0
VERTEX
  5
1583
100
AcDbEntity
  8
A-HATCH
100
AcDbVertex
100
AcDb2dVertex
 10
-11.429517
 20
11.979104
 30
0.0
 70
     8
  0
VERTEX
  5
1584
100
AcDbEntity
  8
A-HATCH
100
AcDbVertex
100
AcDb2dVertex
 10
-11.54299
 20
12.034548
 30
0.0
 70
     8
  0
VERTEX
  5
1585
100
AcDbEntity
  8
A-HATCH
100
AcDbVertex
100
AcDb2dVertex
 10
-11.647115
 20
12.093105
 30
0.0
 70
     8
  0
VERTEX
  5
1586
100
AcDbEntity
  8
A-HATCH
100
AcDbVertex
100
AcDb2dVertex
 10
-11.740334
 20
12.154257
 30
0.0
 70
     8
  0
VERTEX
  5
1587
100
AcDbEntity
  8
A-HATCH
100
AcDbVertex
100
AcDb2dVertex
 10
-11.821089
 20
12.217485
 30
0.0
 70
     8
  0
VERTEX
  5
1588
100
AcDbEntity
  8
A-HATCH
100
AcDbVertex
100
AcDb2dVertex
 10
-11.887822
 20
12.28227
 30
0.0
 70
     8
  0
VERTEX
  5
1589
100
AcDbEntity
  8
A-HATCH
100
AcDbVertex
100
AcDb2dVertex
 10
-11.938976
 20
12.348093
 30
0.0
 70
     8
  0
VERTEX
  5
158A
100
AcDbEntity
  8
A-HATCH
100
AcDbVertex
100
AcDb2dVertex
 10
-11.972992
 20
12.414435
 30
0.0
 70
     8
  0
VERTEX
  5
158B
100
AcDbEntity
  8
A-HATCH
100
AcDbVertex
100
AcDb2dVertex
 10
-11.988853
 20
12.480669
 30
0.0
 70
     8
  0
VERTEX
  5
158C
100
AcDbEntity
  8
A-HATCH
100
AcDbVertex
100
AcDb2dVertex
 10
-11.987706
 20
12.545735
 30
0.0
 70
     8
  0
VERTEX
  5
158D
100
AcDbEntity
  8
A-HATCH
100
AcDbVertex
100
AcDb2dVertex
 10
-11.971239
 20
12.608466
 30
0.0
 70
     8
  0
VERTEX
  5
158E
100
AcDbEntity
  8
A-HATCH
100
AcDbVertex
100
AcDb2dVertex
 10
-11.94114
 20
12.667694
 30
0.0
 70
     8
  0
VERTEX
  5
158F
100
AcDbEntity
  8
A-HATCH
100
AcDbVertex
100
AcDb2dVertex
 10
-11.899096
 20
12.722251
 30
0.0
 70
     8
  0
VERTEX
  5
1590
100
AcDbEntity
  8
A-HATCH
100
AcDbVertex
100
AcDb2dVertex
 10
-11.846795
 20
12.770969
 30
0.0
 70
     8
  0
VERTEX
  5
1591
100
AcDbEntity
  8
A-HATCH
100
AcDbVertex
100
AcDb2dVertex
 10
-11.785926
 20
12.812682
 30
0.0
 70
     8
  0
VERTEX
  5
1592
100
AcDbEntity
  8
A-HATCH
100
AcDbVertex
100
AcDb2dVertex
 10
-11.718176
 20
12.84622
 30
0.0
 70
     8
  0
VERTEX
  5
1593
100
AcDbEntity
  8
A-HATCH
100
AcDbVertex
100
AcDb2dVertex
 10
-11.644843
 20
12.870601
 30
0.0
 70
     8
  0
VERTEX
  5
1594
100
AcDbEntity
  8
A-HATCH
100
AcDbVertex
100
AcDb2dVertex
 10
-11.565667
 20
12.885576
 30
0.0
 70
     8
  0
VERTEX
  5
1595
100
AcDbEntity
  8
A-HATCH
100
AcDbVertex
100
AcDb2dVertex
 10
-11.48
 20
12.891079
 30
0.0
 70
     8
  0
VERTEX
  5
1596
100
AcDbEntity
  8
A-HATCH
100
AcDbVertex
100
AcDb2dVertex
 10
-11.387192
 20
12.887046
 30
0.0
 70
     8
  0
VERTEX
  5
1597
100
AcDbEntity
  8
A-HATCH
100
AcDbVertex
100
AcDb2dVertex
 10
-11.286594
 20
12.873412
 30
0.0
 70
     8
  0
VERTEX
  5
1598
100
AcDbEntity
  8
A-HATCH
100
AcDbVertex
100
AcDb2dVertex
 10
-11.177557
 20
12.850113
 30
0.0
 70
     8
  0
VERTEX
  5
1599
100
AcDbEntity
  8
A-HATCH
100
AcDbVertex
100
AcDb2dVertex
 10
-11.059432
 20
12.817082
 30
0.0
 70
     8
  0
VERTEX
  5
159A
100
AcDbEntity
  8
A-HATCH
100
AcDbVertex
100
AcDb2dVertex
 10
-10.93157
 20
12.774256
 30
0.0
 70
     8
  0
VERTEX
  5
159B
100
AcDbEntity
  8
A-HATCH
100
AcDbVertex
100
AcDb2dVertex
 10
-10.792322
 20
12.723174
 30
0.0
 70
     8
  0
VERTEX
  5
159C
100
AcDbEntity
  8
A-HATCH
100
AcDbVertex
100
AcDb2dVertex
 10
-10.636042
 20
12.671791
 30
0.0
 70
     8
  0
VERTEX
  5
159D
100
AcDbEntity
  8
A-HATCH
100
AcDbVertex
100
AcDb2dVertex
 10
-10.456087
 20
12.629668
 30
0.0
 70
     8
  0
VERTEX
  5
159E
100
AcDbEntity
  8
A-HATCH
100
AcDbVertex
100
AcDb2dVertex
 10
-10.245811
 20
12.606365
 30
0.0
 70
     8
  0
VERTEX
  5
159F
100
AcDbEntity
  8
A-HATCH
100
AcDbVertex
100
AcDb2dVertex
 10
-9.998569
 20
12.611441
 30
0.0
 70
     8
  0
VERTEX
  5
15A0
100
AcDbEntity
  8
A-HATCH
100
AcDbVertex
100
AcDb2dVertex
 10
-9.707717
 20
12.654458
 30
0.0
 70
     8
  0
VERTEX
  5
15A1
100
AcDbEntity
  8
A-HATCH
100
AcDbVertex
100
AcDb2dVertex
 10
-9.36661
 20
12.744974
 30
0.0
 70
     8
  0
VERTEX
  5
15A2
100
AcDbEntity
  8
A-HATCH
100
AcDbVertex
100
AcDb2dVertex
 10
-8.968603
 20
12.892551
 30
0.0
 70
     8
  0
VERTEX
  5
15A3
100
AcDbEntity
  8
A-HATCH
100
AcDbVertex
100
AcDb2dVertex
 10
-8.449884
 20
10.886581
 30
0.0
 70
    16
  0
VERTEX
  5
15A4
100
AcDbEntity
  8
A-HATCH
100
AcDbVertex
100
AcDb2dVertex
 10
-10.178201
 20
11.617294
 30
0.0
 70
    16
  0
VERTEX
  5
15A5
100
AcDbEntity
  8
A-HATCH
100
AcDbVertex
100
AcDb2dVertex
 10
-11.374728
 20
11.883008
 30
0.0
 70
    16
  0
VERTEX
  5
15A6
100
AcDbEntity
  8
A-HATCH
100
AcDbVertex
100
AcDb2dVertex
 10
-12.172413
 20
12.414435
 30
0.0
 70
    16
  0
VERTEX
  5
15A7
100
AcDbEntity
  8
A-HATCH
100
AcDbVertex
100
AcDb2dVertex
 10
-11.77357
 20
12.945863
 30
0.0
 70
    16
  0
VERTEX
  5
15A8
100
AcDbEntity
  8
A-HATCH
100
AcDbVertex
100
AcDb2dVertex
 10
-11.04236
 20
12.879435
 30
0.0
 70
    16
  0
VERTEX
  5
15A9
100
AcDbEntity
  8
A-HATCH
100
AcDbVertex
100
AcDb2dVertex
 10
-10.111727
 20
12.414435
 30
0.0
 70
    16
  0
VERTEX
  5
15AA
100
AcDbEntity
  8
A-HATCH
100
AcDbVertex
100
AcDb2dVertex
 10
-8.968603
 20
12.892551
 30
0.0
 70
    16
  0
SEQEND
  5
15AB
100
AcDbEntity
  8
A-HATCH
  0
POLYLINE
  5
15AC
100
AcDbEntity
  8
A-HATCH
100
AcDb2dPolyline
 66
     1
 10
0.0
 20
0.0
 30
0.0
 70
     4
 75
     6
  0
VERTEX
  5
15AD
100
AcDbEntity
  8
A-HATCH
100
AcDbVertex
100
AcDb2dVertex
 10
-9.766016
 20
13.689964
 30
0.0
 70
    16
  0
VERTEX
  5
15AE
100
AcDbEntity
  8
A-HATCH
100
AcDbVertex
100
AcDb2dVertex
 10
-9.766016
 20
13.689964
 30
0.0
 70
     8
  0
VERTEX
  5
15AF
100
AcDbEntity
  8
A-HATCH
100
AcDbVertex
100
AcDb2dVertex
 10
-10.657299
 20
13.492595
 30
0.0
 70
     8
  0
VERTEX
  5
15B0
100
AcDbEntity
  8
A-HATCH
100
AcDbVertex
100
AcDb2dVertex
 10
-11.347287
 20
13.309429
 30
0.0
 70
     8
  0
VERTEX
  5
15B1
100
AcDbEntity
  8
A-HATCH
100
AcDbVertex
100
AcDb2dVertex
 10
-11.866518
 20
13.140957
 30
0.0
 70
     8
  0
VERTEX
  5
15B2
100
AcDbEntity
  8
A-HATCH
100
AcDbVertex
100
AcDb2dVertex
 10
-12.245528
 20
12.98767
 30
0.0
 70
     8
  0
VERTEX
  5
15B3
100
AcDbEntity
  8
A-HATCH
100
AcDbVertex
100
AcDb2dVertex
 10
-12.514854
 20
12.850062
 30
0.0
 70
     8
  0
VERTEX
  5
15B4
100
AcDbEntity
  8
A-HATCH
100
AcDbVertex
100
AcDb2dVertex
 10
-12.705033
 20
12.728623
 30
0.0
 70
     8
  0
VERTEX
  5
15B5
100
AcDbEntity
  8
A-HATCH
100
AcDbVertex
100
AcDb2dVertex
 10
-12.846602
 20
12.623845
 30
0.0
 70
     8
  0
VERTEX
  5
15B6
100
AcDbEntity
  8
A-HATCH
100
AcDbVertex
100
AcDb2dVertex
 10
-12.970098
 20
12.536221
 30
0.0
 70
     8
  0
VERTEX
  5
15B7
100
AcDbEntity
  8
A-HATCH
100
AcDbVertex
100
AcDb2dVertex
 10
-13.100621
 20
12.466008
 30
0.0
 70
     8
  0
VERTEX
  5
15B8
100
AcDbEntity
  8
A-HATCH
100
AcDbVertex
100
AcDb2dVertex
 10
-13.241532
 20
12.412533
 30
0.0
 70
     8
  0
VERTEX
  5
15B9
100
AcDbEntity
  8
A-HATCH
100
AcDbVertex
100
AcDb2dVertex
 10
-13.390752
 20
12.374885
 30
0.0
 70
     8
  0
VERTEX
  5
15BA
100
AcDbEntity
  8
A-HATCH
100
AcDbVertex
100
AcDb2dVertex
 10
-13.546203
 20
12.352159
 30
0.0
 70
     8
  0
VERTEX
  5
15BB
100
AcDbEntity
  8
A-HATCH
100
AcDbVertex
100
AcDb2dVertex
 10
-13.705809
 20
12.343444
 30
0.0
 70
     8
  0
VERTEX
  5
15BC
100
AcDbEntity
  8
A-HATCH
100
AcDbVertex
100
AcDb2dVertex
 10
-13.867493
 20
12.347834
 30
0.0
 70
     8
  0
VERTEX
  5
15BD
100
AcDbEntity
  8
A-HATCH
100
AcDbVertex
100
AcDb2dVertex
 10
-14.029177
 20
12.364419
 30
0.0
 70
     8
  0
VERTEX
  5
15BE
100
AcDbEntity
  8
A-HATCH
100
AcDbVertex
100
AcDb2dVertex
 10
-14.188783
 20
12.392293
 30
0.0
 70
     8
  0
VERTEX
  5
15BF
100
AcDbEntity
  8
A-HATCH
100
AcDbVertex
100
AcDb2dVertex
 10
-14.344732
 20
12.430199
 30
0.0
 70
     8
  0
VERTEX
  5
15C0
100
AcDbEntity
  8
A-HATCH
100
AcDbVertex
100
AcDb2dVertex
 10
-14.497436
 20
12.475501
 30
0.0
 70
     8
  0
VERTEX
  5
15C1
100
AcDbEntity
  8
A-HATCH
100
AcDbVertex
100
AcDb2dVertex
 10
-14.647802
 20
12.525214
 30
0.0
 70
     8
  0
VERTEX
  5
15C2
100
AcDbEntity
  8
A-HATCH
100
AcDbVertex
100
AcDb2dVertex
 10
-14.79674
 20
12.576355
 30
0.0
 70
     8
  0
VERTEX
  5
15C3
100
AcDbEntity
  8
A-HATCH
100
AcDbVertex
100
AcDb2dVertex
 10
-14.945159
 20
12.625938
 30
0.0
 70
     8
  0
VERTEX
  5
15C4
100
AcDbEntity
  8
A-HATCH
100
AcDbVertex
100
AcDb2dVertex
 10
-15.093968
 20
12.670981
 30
0.0
 70
     8
  0
VERTEX
  5
15C5
100
AcDbEntity
  8
A-HATCH
100
AcDbVertex
100
AcDb2dVertex
 10
-15.244075
 20
12.708498
 30
0.0
 70
     8
  0
VERTEX
  5
15C6
100
AcDbEntity
  8
A-HATCH
100
AcDbVertex
100
AcDb2dVertex
 10
-15.396389
 20
12.735506
 30
0.0
 70
     8
  0
VERTEX
  5
15C7
100
AcDbEntity
  8
A-HATCH
100
AcDbVertex
100
AcDb2dVertex
 10
-15.551754
 20
12.749756
 30
0.0
 70
     8
  0
VERTEX
  5
15C8
100
AcDbEntity
  8
A-HATCH
100
AcDbVertex
100
AcDb2dVertex
 10
-15.710754
 20
12.75194
 30
0.0
 70
     8
  0
VERTEX
  5
15C9
100
AcDbEntity
  8
A-HATCH
100
AcDbVertex
100
AcDb2dVertex
 10
-15.873909
 20
12.743485
 30
0.0
 70
     8
  0
VERTEX
  5
15CA
100
AcDbEntity
  8
A-HATCH
100
AcDbVertex
100
AcDb2dVertex
 10
-16.041738
 20
12.725819
 30
0.0
 70
     8
  0
VERTEX
  5
15CB
100
AcDbEntity
  8
A-HATCH
100
AcDbVertex
100
AcDb2dVertex
 10
-16.21476
 20
12.700368
 30
0.0
 70
     8
  0
VERTEX
  5
15CC
100
AcDbEntity
  8
A-HATCH
100
AcDbVertex
100
AcDb2dVertex
 10
-16.393495
 20
12.668559
 30
0.0
 70
     8
  0
VERTEX
  5
15CD
100
AcDbEntity
  8
A-HATCH
100
AcDbVertex
100
AcDb2dVertex
 10
-16.578461
 20
12.63182
 30
0.0
 70
     8
  0
VERTEX
  5
15CE
100
AcDbEntity
  8
A-HATCH
100
AcDbVertex
100
AcDb2dVertex
 10
-16.770179
 20
12.591578
 30
0.0
 70
     8
  0
VERTEX
  5
15CF
100
AcDbEntity
  8
A-HATCH
100
AcDbVertex
100
AcDb2dVertex
 10
-16.970403
 20
12.549458
 30
0.0
 70
     8
  0
VERTEX
  5
15D0
100
AcDbEntity
  8
A-HATCH
100
AcDbVertex
100
AcDb2dVertex
 10
-17.185833
 20
12.507874
 30
0.0
 70
     8
  0
VERTEX
  5
15D1
100
AcDbEntity
  8
A-HATCH
100
AcDbVertex
100
AcDb2dVertex
 10
-17.424401
 20
12.469441
 30
0.0
 70
     8
  0
VERTEX
  5
15D2
100
AcDbEntity
  8
A-HATCH
100
AcDbVertex
100
AcDb2dVertex
 10
-17.694044
 20
12.43677
 30
0.0
 70
     8
  0
VERTEX
  5
15D3
100
AcDbEntity
  8
A-HATCH
100
AcDbVertex
100
AcDb2dVertex
 10
-18.002695
 20
12.412475
 30
0.0
 70
     8
  0
VERTEX
  5
15D4
100
AcDbEntity
  8
A-HATCH
100
AcDbVertex
100
AcDb2dVertex
 10
-18.358289
 20
12.399169
 30
0.0
 70
     8
  0
VERTEX
  5
15D5
100
AcDbEntity
  8
A-HATCH
100
AcDbVertex
100
AcDb2dVertex
 10
-18.76876
 20
12.399463
 30
0.0
 70
     8
  0
VERTEX
  5
15D6
100
AcDbEntity
  8
A-HATCH
100
AcDbVertex
100
AcDb2dVertex
 10
-19.242043
 20
12.415972
 30
0.0
 70
     8
  0
VERTEX
  5
15D7
100
AcDbEntity
  8
A-HATCH
100
AcDbVertex
100
AcDb2dVertex
 10
-12.438308
 20
13.145148
 30
0.0
 70
    16
  0
VERTEX
  5
15D8
100
AcDbEntity
  8
A-HATCH
100
AcDbVertex
100
AcDb2dVertex
 10
-12.83715
 20
12.348007
 30
0.0
 70
    16
  0
VERTEX
  5
15D9
100
AcDbEntity
  8
A-HATCH
100
AcDbVertex
100
AcDb2dVertex
 10
-14.233099
 20
12.281579
 30
0.0
 70
    16
  0
VERTEX
  5
15DA
100
AcDbEntity
  8
A-HATCH
100
AcDbVertex
100
AcDb2dVertex
 10
-15.363152
 20
12.879435
 30
0.0
 70
    16
  0
VERTEX
  5
15DB
100
AcDbEntity
  8
A-HATCH
100
AcDbVertex
100
AcDb2dVertex
 10
-16.692626
 20
12.613721
 30
0.0
 70
    16
  0
VERTEX
  5
15DC
100
AcDbEntity
  8
A-HATCH
100
AcDbVertex
100
AcDb2dVertex
 10
-17.889154
 20
12.348007
 30
0.0
 70
    16
  0
VERTEX
  5
15DD
100
AcDbEntity
  8
A-HATCH
100
AcDbVertex
100
AcDb2dVertex
 10
-19.242043
 20
12.415972
 30
0.0
 70
    16
  0
SEQEND
  5
15DE
100
AcDbEntity
  8
A-HATCH
  0
POLYLINE
  5
15DF
100
AcDbEntity
  8
A-HATCH
100
AcDb2dPolyline
 66
     1
 10
0.0
 20
0.0
 30
0.0
 70
     4
 75
     6
  0
VERTEX
  5
15E0
100
AcDbEntity
  8
A-HATCH
100
AcDbVertex
100
AcDb2dVertex
 10
-10.463763
 20
14.387712
 30
0.0
 70
    16
  0
VERTEX
  5
15E1
100
AcDbEntity
  8
A-HATCH
100
AcDbVertex
100
AcDb2dVertex
 10
-10.463763
 20
14.387712
 30
0.0
 70
     8
  0
VERTEX
  5
15E2
100
AcDbEntity
  8
A-HATCH
100
AcDbVertex
100
AcDb2dVertex
 10
-11.033994
 20
14.275956
 30
0.0
 70
     8
  0
VERTEX
  5
15E3
100
AcDbEntity
  8
A-HATCH
100
AcDbVertex
100
AcDb2dVertex
 10
-11.520214
 20
14.175698
 30
0.0
 70
     8
  0
VERTEX
  5
15E4
100
AcDbEntity
  8
A-HATCH
100
AcDbVertex
100
AcDb2dVertex
 10
-11.933164
 20
14.087817
 30
0.0
 70
     8
  0
VERTEX
  5
15E5
100
AcDbEntity
  8
A-HATCH
100
AcDbVertex
100
AcDb2dVertex
 10
-12.283584
 20
14.01319
 30
0.0
 70
     8
  0
VERTEX
  5
15E6
100
AcDbEntity
  8
A-HATCH
100
AcDbVertex
100
AcDb2dVertex
 10
-12.582214
 20
13.952696
 30
0.0
 70
     8
  0
VERTEX
  5
15E7
100
AcDbEntity
  8
A-HATCH
100
AcDbVertex
100
AcDb2dVertex
 10
-12.839794
 20
13.907212
 30
0.0
 70
     8
  0
VERTEX
  5
15E8
100
AcDbEntity
  8
A-HATCH
100
AcDbVertex
100
AcDb2dVertex
 10
-13.067066
 20
13.877618
 30
0.0
 70
     8
  0
VERTEX
  5
15E9
100
AcDbEntity
  8
A-HATCH
100
AcDbVertex
100
AcDb2dVertex
 10
-13.274769
 20
13.86479
 30
0.0
 70
     8
  0
VERTEX
  5
15EA
100
AcDbEntity
  8
A-HATCH
100
AcDbVertex
100
AcDb2dVertex
 10
-13.471907
 20
13.86892
 30
0.0
 70
     8
  0
VERTEX
  5
15EB
100
AcDbEntity
  8
A-HATCH
100
AcDbVertex
100
AcDb2dVertex
 10
-13.660542
 20
13.887451
 30
0.0
 70
     8
  0
VERTEX
  5
15EC
100
AcDbEntity
  8
A-HATCH
100
AcDbVertex
100
AcDb2dVertex
 10
-13.840997
 20
13.917141
 30
0.0
 70
     8
  0
VERTEX
  5
15ED
100
AcDbEntity
  8
A-HATCH
100
AcDbVertex
100
AcDb2dVertex
 10
-14.013597
 20
13.954745
 30
0.0
 70
     8
  0
VERTEX
  5
15EE
100
AcDbEntity
  8
A-HATCH
100
AcDbVertex
100
AcDb2dVertex
 10
-14.178667
 20
13.997019
 30
0.0
 70
     8
  0
VERTEX
  5
15EF
100
AcDbEntity
  8
A-HATCH
100
AcDbVertex
100
AcDb2dVertex
 10
-14.336531
 20
14.040721
 30
0.0
 70
     8
  0
VERTEX
  5
15F0
100
AcDbEntity
  8
A-HATCH
100
AcDbVertex
100
AcDb2dVertex
 10
-14.487514
 20
14.082607
 30
0.0
 70
     8
  0
VERTEX
  5
15F1
100
AcDbEntity
  8
A-HATCH
100
AcDbVertex
100
AcDb2dVertex
 10
-14.631941
 20
14.119432
 30
0.0
 70
     8
  0
VERTEX
  5
15F2
100
AcDbEntity
  8
A-HATCH
100
AcDbVertex
100
AcDb2dVertex
 10
-14.770255
 20
14.148408
 30
0.0
 70
     8
  0
VERTEX
  5
15F3
100
AcDbEntity
  8
A-HATCH
100
AcDbVertex
100
AcDb2dVertex
 10
-14.903375
 20
14.168561
 30
0.0
 70
     8
  0
VERTEX
  5
15F4
100
AcDbEntity
  8
A-HATCH
100
AcDbVertex
100
AcDb2dVertex
 10
-15.032341
 20
14.179373
 30
0.0
 70
     8
  0
VERTEX
  5
15F5
100
AcDbEntity
  8
A-HATCH
100
AcDbVertex
100
AcDb2dVertex
 10
-15.158191
 20
14.180325
 30
0.0
 70
     8
  0
VERTEX
  5
15F6
100
AcDbEntity
  8
A-HATCH
100
AcDbVertex
100
AcDb2dVertex
 10
-15.281964
 20
14.170897
 30
0.0
 70
     8
  0
VERTEX
  5
15F7
100
AcDbEntity
  8
A-HATCH
100
AcDbVertex
100
AcDb2dVertex
 10
-15.404698
 20
14.15057
 30
0.0
 70
     8
  0
VERTEX
  5
15F8
100
AcDbEntity
  8
A-HATCH
100
AcDbVertex
100
AcDb2dVertex
 10
-15.527432
 20
14.118826
 30
0.0
 70
     8
  0
VERTEX
  5
15F9
100
AcDbEntity
  8
A-HATCH
100
AcDbVertex
100
AcDb2dVertex
 10
-15.651205
 20
14.075146
 30
0.0
 70
     8
  0
VERTEX
  5
15FA
100
AcDbEntity
  8
A-HATCH
100
AcDbVertex
100
AcDb2dVertex
 10
-15.777304
 20
14.019454
 30
0.0
 70
     8
  0
VERTEX
  5
15FB
100
AcDbEntity
  8
A-HATCH
100
AcDbVertex
100
AcDb2dVertex
 10
-15.908011
 20
13.953447
 30
0.0
 70
     8
  0
VERTEX
  5
15FC
100
AcDbEntity
  8
A-HATCH
100
AcDbVertex
100
AcDb2dVertex
 10
-16.04586
 20
13.879267
 30
0.0
 70
     8
  0
VERTEX
  5
15FD
100
AcDbEntity
  8
A-HATCH
100
AcDbVertex
100
AcDb2dVertex
 10
-16.193381
 20
13.799053
 30
0.0
 70
     8
  0
VERTEX
  5
15FE
100
AcDbEntity
  8
A-HATCH
100
AcDbVertex
100
AcDb2dVertex
 10
-16.353106
 20
13.714947
 30
0.0
 70
     8
  0
VERTEX
  5
15FF
100
AcDbEntity
  8
A-HATCH
100
AcDbVertex
100
AcDb2dVertex
 10
-16.527567
 20
13.62909
 30
0.0
 70
     8
  0
VERTEX
  5
1600
100
AcDbEntity
  8
A-HATCH
100
AcDbVertex
100
AcDb2dVertex
 10
-16.719296
 20
13.543622
 30
0.0
 70
     8
  0
VERTEX
  5
1601
100
AcDbEntity
  8
A-HATCH
100
AcDbVertex
100
AcDb2dVertex
 10
-16.930824
 20
13.460683
 30
0.0
 70
     8
  0
VERTEX
  5
1602
100
AcDbEntity
  8
A-HATCH
100
AcDbVertex
100
AcDb2dVertex
 10
-17.16533
 20
13.38164
 30
0.0
 70
     8
  0
VERTEX
  5
1603
100
AcDbEntity
  8
A-HATCH
100
AcDbVertex
100
AcDb2dVertex
 10
-17.428582
 20
13.304749
 30
0.0
 70
     8
  0
VERTEX
  5
1604
100
AcDbEntity
  8
A-HATCH
100
AcDbVertex
100
AcDb2dVertex
 10
-17.726995
 20
13.227496
 30
0.0
 70
     8
  0
VERTEX
  5
1605
100
AcDbEntity
  8
A-HATCH
100
AcDbVertex
100
AcDb2dVertex
 10
-18.066984
 20
13.147362
 30
0.0
 70
     8
  0
VERTEX
  5
1606
100
AcDbEntity
  8
A-HATCH
100
AcDbVertex
100
AcDb2dVertex
 10
-18.454964
 20
13.06183
 30
0.0
 70
     8
  0
VERTEX
  5
1607
100
AcDbEntity
  8
A-HATCH
100
AcDbVertex
100
AcDb2dVertex
 10
-18.89735
 20
12.968383
 30
0.0
 70
     8
  0
VERTEX
  5
1608
100
AcDbEntity
  8
A-HATCH
100
AcDbVertex
100
AcDb2dVertex
 10
-19.400557
 20
12.864504
 30
0.0
 70
     8
  0
VERTEX
  5
1609
100
AcDbEntity
  8
A-HATCH
100
AcDbVertex
100
AcDb2dVertex
 10
-19.970999
 20
12.747677
 30
0.0
 70
     8
  0
VERTEX
  5
160A
100
AcDbEntity
  8
A-HATCH
100
AcDbVertex
100
AcDb2dVertex
 10
-12.105939
 20
14.075146
 30
0.0
 70
    16
  0
VERTEX
  5
160B
100
AcDbEntity
  8
A-HATCH
100
AcDbVertex
100
AcDb2dVertex
 10
-13.36894
 20
13.676576
 30
0.0
 70
    16
  0
VERTEX
  5
160C
100
AcDbEntity
  8
A-HATCH
100
AcDbVertex
100
AcDb2dVertex
 10
-14.698415
 20
14.208003
 30
0.0
 70
    16
  0
VERTEX
  5
160D
100
AcDbEntity
  8
A-HATCH
100
AcDbVertex
100
AcDb2dVertex
 10
-15.629047
 20
14.208003
 30
0.0
 70
    16
  0
VERTEX
  5
160E
100
AcDbEntity
  8
A-HATCH
100
AcDbVertex
100
AcDb2dVertex
 10
-16.692626
 20
13.410862
 30
0.0
 70
    16
  0
VERTEX
  5
160F
100
AcDbEntity
  8
A-HATCH
100
AcDbVertex
100
AcDb2dVertex
 10
-18.35447
 20
13.07872
 30
0.0
 70
    16
  0
VERTEX
  5
1610
100
AcDbEntity
  8
A-HATCH
100
AcDbVertex
100
AcDb2dVertex
 10
-19.970999
 20
12.747677
 30
0.0
 70
    16
  0
SEQEND
  5
1611
100
AcDbEntity
  8
A-HATCH
  0
POLYLINE
  5
1612
100
AcDbEntity
  8
A-HATCH
100
AcDb2dPolyline
 66
     1
 10
0.0
 20
0.0
 30
0.0
 70
     4
 75
     6
  0
VERTEX
  5
1613
100
AcDbEntity
  8
A-HATCH
100
AcDbVertex
100
AcDb2dVertex
 10
-22.461287
 20
13.726175
 30
0.0
 70
    16
  0
VERTEX
  5
1614
100
AcDbEntity
  8
A-HATCH
100
AcDbVertex
100
AcDb2dVertex
 10
-22.461287
 20
13.726175
 30
0.0
 70
     8
  0
VERTEX
  5
1615
100
AcDbEntity
  8
A-HATCH
100
AcDbVertex
100
AcDb2dVertex
 10
-21.739035
 20
13.793098
 30
0.0
 70
     8
  0
VERTEX
  5
1616
100
AcDbEntity
  8
A-HATCH
100
AcDbVertex
100
AcDb2dVertex
 10
-21.003124
 20
13.840737
 30
0.0
 70
     8
  0
VERTEX
  5
1617
100
AcDbEntity
  8
A-HATCH
100
AcDbVertex
100
AcDb2dVertex
 10
-20.247495
 20
13.882521
 30
0.0
 70
     8
  0
VERTEX
  5
1618
100
AcDbEntity
  8
A-HATCH
100
AcDbVertex
100
AcDb2dVertex
 10
-19.466086
 20
13.931882
 30
0.0
 70
     8
  0
VERTEX
  5
1619
100
AcDbEntity
  8
A-HATCH
100
AcDbVertex
100
AcDb2dVertex
 10
-18.652834
 20
14.002251
 30
0.0
 70
     8
  0
VERTEX
  5
161A
100
AcDbEntity
  8
A-HATCH
100
AcDbVertex
100
AcDb2dVertex
 10
-17.80168
 20
14.10706
 30
0.0
 70
     8
  0
VERTEX
  5
161B
100
AcDbEntity
  8
A-HATCH
100
AcDbVertex
100
AcDb2dVertex
 10
-16.90656
 20
14.259738
 30
0.0
 70
     8
  0
VERTEX
  5
161C
100
AcDbEntity
  8
A-HATCH
100
AcDbVertex
100
AcDb2dVertex
 10
-15.961416
 20
14.473717
 30
0.0
 70
     8
  0
VERTEX
  5
161D
100
AcDbEntity
  8
A-HATCH
100
AcDbVertex
100
AcDb2dVertex
 10
-20.548103
 20
13.942289
 30
0.0
 70
    16
  0
VERTEX
  5
161E
100
AcDbEntity
  8
A-HATCH
100
AcDbVertex
100
AcDb2dVertex
 10
-18.553891
 20
13.809433
 30
0.0
 70
    16
  0
VERTEX
  5
161F
100
AcDbEntity
  8
A-HATCH
100
AcDbVertex
100
AcDb2dVertex
 10
-15.961416
 20
14.473717
 30
0.0
 70
    16
  0
SEQEND
  5
1620
100
AcDbEntity
  8
A-HATCH
  0
CIRCLE
  5
1621
100
AcDbEntity
  8
A-HATCH
100
AcDbCircle
 10
-12.438308
 20
9.292299
 30
0.0
 40
0.612838
  0
ENDBLK
  5
1623
100
AcDbEntity
  8
0
100
AcDbBlockEnd
  0
BLOCK
  5
27E5
100
AcDbEntity
  8
0
100
AcDbBlockBegin
  2
NEWCOLOR
 70
     0
 10
0.0
 20
0.0
 30
0.0
  3
NEWCOLOR
  1

  0
ENDBLK
  5
27E6
100
AcDbEntity
  8
0
100
AcDbBlockEnd
  0
ENDSEC
  0
SECTION
  2
ENTITIES
  0
LINE
  5
4CE
100
AcDbEntity
  8
A-WALL-SHKE
100
AcDbLine
 10
-12.446497
 20
71.262432
 30
0.0
 11
-12.446497
 21
64.137432
 31
0.0
  0
LINE
  5
4CF
100
AcDbEntity
  8
A-WALL-SHKE
100
AcDbLine
 10
-12.258997
 20
71.262432
 30
0.0
 11
-12.258997
 21
64.137432
 31
0.0
  0
LINE
  5
4D9
100
AcDbEntity
  8
A-WALL-SHKE
100
AcDbLine
 10
-20.86256
 20
79.512432
 30
0.0
 11
-20.86256
 21
71.262432
 31
0.0
  0
LINE
  5
4DA
100
AcDbEntity
  8
A-WALL-SHKE
100
AcDbLine
 10
-20.67506
 20
79.512432
 30
0.0
 11
-20.67506
 21
71.262432
 31
0.0
  0
LINE
  5
4E5
100
AcDbEntity
  8
A-WALL-SHKE
100
AcDbLine
 10
-14.23756
 20
71.262432
 30
0.0
 11
-14.23756
 21
79.512432
 31
0.0
  0
LINE
  5
4E6
100
AcDbEntity
  8
A-WALL-SHKE
100
AcDbLine
 10
-14.42506
 20
71.262432
 30
0.0
 11
-14.42506
 21
79.512432
 31
0.0
  0
LINE
  5
4E8
100
AcDbEntity
  8
A-WALL-SHKE
100
AcDbLine
 10
-5.821497
 20
79.512432
 30
0.0
 11
-5.821497
 21
64.137432
 31
0.0
  0
LINE
  5
4E9
100
AcDbEntity
  8
A-WALL-SHKE
100
AcDbLine
 10
-19.008997
 20
71.262432
 30
0.0
 11
-19.008997
 21
64.137432
 31
0.0
  0
LINE
  5
4EA
100
AcDbEntity
  8
A-WALL-SHKE
100
AcDbLine
 10
-18.821497
 20
71.262432
 30
0.0
 11
-18.821497
 21
64.137432
 31
0.0
  0
LINE
  5
4EB
100
AcDbEntity
  8
A-WALL-SHKE
100
AcDbLine
 10
-5.821497
 20
64.137432
 30
0.0
 11
-89.280332
 21
64.137432
 31
0.0
  0
LINE
  5
4EC
100
AcDbEntity
  8
A-WALL-SHKE
100
AcDbLine
 10
-5.821497
 20
71.262432
 30
0.0
 11
-89.280332
 21
71.262432
 31
0.0
  0
LINE
  5
4F3
100
AcDbEntity
  8
A-WALL-SHKE
100
AcDbLine
 10
-25.446497
 20
71.262432
 30
0.0
 11
-25.446497
 21
64.137432
 31
0.0
  0
LINE
  5
4F4
100
AcDbEntity
  8
A-WALL-SHKE
100
AcDbLine
 10
-25.633997
 20
71.262432
 30
0.0
 11
-25.633997
 21
64.137432
 31
0.0
  0
LINE
  5
4F7
100
AcDbEntity
  8
A-WALL-SHKE
100
AcDbLine
 10
-35.492894
 20
78.387432
 30
0.0
 11
-35.492894
 21
71.262432
 31
0.0
  0
LINE
  5
4F8
100
AcDbEntity
  8
A-WALL-SHKE
100
AcDbLine
 10
-35.680394
 20
78.387432
 30
0.0
 11
-35.680394
 21
71.262432
 31
0.0
  0
LINE
  5
4FB
100
AcDbEntity
  8
A-WALL-SHKE
100
AcDbLine
 10
-28.867894
 20
78.387432
 30
0.0
 11
-28.867894
 21
71.262432
 31
0.0
  0
LINE
  5
4FC
100
AcDbEntity
  8
A-WALL-SHKE
100
AcDbLine
 10
-29.055394
 20
78.387432
 30
0.0
 11
-29.055394
 21
71.262432
 31
0.0
  0
LINE
  5
4FD
100
AcDbEntity
  8
A-WALL-SHKE
100
AcDbLine
 10
-33.826831
 20
71.262432
 30
0.0
 11
-33.826831
 21
64.137432
 31
0.0
  0
LINE
  5
4FE
100
AcDbEntity
  8
A-WALL-SHKE
100
AcDbLine
 10
-33.639331
 20
71.262432
 30
0.0
 11
-33.639331
 21
64.137432
 31
0.0
  0
LINE
  5
501
100
AcDbEntity
  8
A-WALL-SHKE
100
AcDbLine
 10
-40.451831
 20
71.262432
 30
0.0
 11
-40.451831
 21
64.137432
 31
0.0
  0
LINE
  5
502
100
AcDbEntity
  8
A-WALL-SHKE
100
AcDbLine
 10
-40.264331
 20
71.262432
 30
0.0
 11
-40.264331
 21
64.137432
 31
0.0
  0
LINE
  5
505
100
AcDbEntity
  8
A-WALL-SHKE
100
AcDbLine
 10
-50.310727
 20
78.387432
 30
0.0
 11
-50.310727
 21
71.262432
 31
0.0
  0
LINE
  5
506
100
AcDbEntity
  8
A-WALL-SHKE
100
AcDbLine
 10
-50.498227
 20
78.387432
 30
0.0
 11
-50.498227
 21
71.262432
 31
0.0
  0
LINE
  5
509
100
AcDbEntity
  8
A-WALL-SHKE
100
AcDbLine
 10
-43.685727
 20
78.387432
 30
0.0
 11
-43.685727
 21
71.262432
 31
0.0
  0
LINE
  5
50A
100
AcDbEntity
  8
A-WALL-SHKE
100
AcDbLine
 10
-43.873227
 20
78.387432
 30
0.0
 11
-43.873227
 21
71.262432
 31
0.0
  0
LINE
  5
50D
100
AcDbEntity
  8
A-WALL-SHKE
100
AcDbLine
 10
-48.644665
 20
71.262432
 30
0.0
 11
-48.644665
 21
64.137432
 31
0.0
  0
LINE
  5
50E
100
AcDbEntity
  8
A-WALL-SHKE
100
AcDbLine
 10
-48.457165
 20
71.262432
 30
0.0
 11
-48.457165
 21
64.137432
 31
0.0
  0
LINE
  5
511
100
AcDbEntity
  8
A-WALL-SHKE
100
AcDbLine
 10
-55.269665
 20
71.262432
 30
0.0
 11
-55.269665
 21
64.137432
 31
0.0
  0
LINE
  5
512
100
AcDbEntity
  8
A-WALL-SHKE
100
AcDbLine
 10
-55.082165
 20
71.262432
 30
0.0
 11
-55.082165
 21
64.137432
 31
0.0
  0
LINE
  5
515
100
AcDbEntity
  8
A-WALL-SHKE
100
AcDbLine
 10
-65.128561
 20
78.387432
 30
0.0
 11
-65.128561
 21
71.262432
 31
0.0
  0
LINE
  5
516
100
AcDbEntity
  8
A-WALL-SHKE
100
AcDbLine
 10
-65.316061
 20
78.387432
 30
0.0
 11
-65.316061
 21
71.262432
 31
0.0
  0
LINE
  5
51B
100
AcDbEntity
  8
A-WALL-SHKE
100
AcDbLine
 10
-58.503561
 20
78.387432
 30
0.0
 11
-58.503561
 21
71.262432
 31
0.0
  0
LINE
  5
51C
100
AcDbEntity
  8
A-WALL-SHKE
100
AcDbLine
 10
-58.691061
 20
78.387432
 30
0.0
 11
-58.691061
 21
71.262432
 31
0.0
  0
LINE
  5
51D
100
AcDbEntity
  8
A-WALL-SHKE
100
AcDbLine
 10
-69.899998
 20
71.262432
 30
0.0
 11
-69.899998
 21
64.137432
 31
0.0
  0
LINE
  5
51E
100
AcDbEntity
  8
A-WALL-SHKE
100
AcDbLine
 10
-70.087498
 20
71.262432
 30
0.0
 11
-70.087498
 21
64.137432
 31
0.0
  0
LINE
  5
523
100
AcDbEntity
  8
A-WALL-SHKE
100
AcDbLine
 10
-63.274998
 20
71.262432
 30
0.0
 11
-63.274998
 21
64.137432
 31
0.0
  0
LINE
  5
524
100
AcDbEntity
  8
A-WALL-SHKE
100
AcDbLine
 10
-63.462498
 20
71.262432
 30
0.0
 11
-63.462498
 21
64.137432
 31
0.0
  0
LINE
  5
525
100
AcDbEntity
  8
A-WALL-SHKE
100
AcDbLine
 10
-79.946395
 20
78.387432
 30
0.0
 11
-79.946395
 21
71.262432
 31
0.0
  0
LINE
  5
526
100
AcDbEntity
  8
A-WALL-SHKE
100
AcDbLine
 10
-80.133895
 20
78.387432
 30
0.0
 11
-80.133895
 21
71.262432
 31
0.0
  0
LINE
  5
52B
100
AcDbEntity
  8
A-WALL-SHKE
100
AcDbLine
 10
-73.321395
 20
78.387432
 30
0.0
 11
-73.321395
 21
71.262432
 31
0.0
  0
LINE
  5
52C
100
AcDbEntity
  8
A-WALL-SHKE
100
AcDbLine
 10
-73.508895
 20
78.387432
 30
0.0
 11
-73.508895
 21
71.262432
 31
0.0
  0
LINE
  5
530
100
AcDbEntity
  8
A-WALL-SHKE
100
AcDbLine
 10
-84.905332
 20
71.262432
 30
0.0
 11
-84.905332
 21
64.137432
 31
0.0
  0
LINE
  5
531
100
AcDbEntity
  8
A-WALL-SHKE
100
AcDbLine
 10
-84.717832
 20
71.262432
 30
0.0
 11
-84.717832
 21
64.137432
 31
0.0
  0
LINE
  5
532
100
AcDbEntity
  8
A-WALL-SHKE
100
AcDbLine
 10
-78.280332
 20
71.262432
 30
0.0
 11
-78.280332
 21
64.137432
 31
0.0
  0
LINE
  5
533
100
AcDbEntity
  8
A-WALL-SHKE
100
AcDbLine
 10
-78.092832
 20
71.262432
 30
0.0
 11
-78.092832
 21
64.137432
 31
0.0
  0
LINE
  5
53D
100
AcDbEntity
  8
A-WALL-SHKE
100
AcDbLine
 10
-88.326729
 20
78.387432
 30
0.0
 11
-88.326729
 21
71.262432
 31
0.0
  0
LINE
  5
543
100
AcDbEntity
  8
A-WALL-SHKE
100
AcDbLine
 10
-89.280332
 20
71.262432
 30
0.0
 11
-89.280332
 21
64.137432
 31
0.0
  0
LINE
  5
54F
100
AcDbEntity
  8
A-WALL-SHKE
100
AcDbLine
 10
-22.378295
 20
85.512432
 30
0.0
 11
-90.462498
 21
85.512432
 31
0.0
  0
LINE
  5
565
100
AcDbEntity
  8
A-WALL-SHKE
100
AcDbLine
 10
-89.508895
 20
92.637432
 30
0.0
 11
-89.508895
 21
85.512432
 31
0.0
  0
LINE
  5
570
100
AcDbEntity
  8
A-WALL-SHKE
100
AcDbLine
 10
-90.462498
 20
85.512432
 30
0.0
 11
-90.462498
 21
78.387432
 31
0.0
  0
LINE
  5
573
100
AcDbEntity
  8
A-WALL-SHKE
100
AcDbLine
 10
-85.691061
 20
92.637432
 30
0.0
 11
-85.691061
 21
85.512432
 31
0.0
  0
LINE
  5
574
100
AcDbEntity
  8
A-WALL-SHKE
100
AcDbLine
 10
-85.503561
 20
92.637432
 30
0.0
 11
-85.503561
 21
85.512432
 31
0.0
  0
LINE
  5
577
100
AcDbEntity
  8
A-WALL-SHKE
100
AcDbLine
 10
-78.253561
 20
92.637432
 30
0.0
 11
-78.253561
 21
85.512432
 31
0.0
  0
LINE
  5
578
100
AcDbEntity
  8
A-WALL-SHKE
100
AcDbLine
 10
-78.066061
 20
92.637432
 30
0.0
 11
-78.066061
 21
85.512432
 31
0.0
  0
LINE
  5
57B
100
AcDbEntity
  8
A-WALL-SHKE
100
AcDbLine
 10
-83.024998
 20
85.512432
 30
0.0
 11
-83.024998
 21
78.387432
 31
0.0
  0
LINE
  5
57C
100
AcDbEntity
  8
A-WALL-SHKE
100
AcDbLine
 10
-82.837498
 20
85.512432
 30
0.0
 11
-82.837498
 21
78.387432
 31
0.0
  0
LINE
  5
581
100
AcDbEntity
  8
A-WALL-SHKE
100
AcDbLine
 10
-75.644665
 20
85.512432
 30
0.0
 11
-75.644665
 21
78.387432
 31
0.0
  0
LINE
  5
582
100
AcDbEntity
  8
A-WALL-SHKE
100
AcDbLine
 10
-75.457165
 20
85.512432
 30
0.0
 11
-75.457165
 21
78.387432
 31
0.0
  0
LINE
  5
583
100
AcDbEntity
  8
A-WALL-SHKE
100
AcDbLine
 10
-70.873227
 20
92.637432
 30
0.0
 11
-70.873227
 21
85.512432
 31
0.0
  0
LINE
  5
584
100
AcDbEntity
  8
A-WALL-SHKE
100
AcDbLine
 10
-70.685727
 20
92.637432
 30
0.0
 11
-70.685727
 21
85.512432
 31
0.0
  0
LINE
  5
587
100
AcDbEntity
  8
A-WALL-SHKE
100
AcDbLine
 10
-63.435727
 20
92.637432
 30
0.0
 11
-63.435727
 21
85.512432
 31
0.0
  0
LINE
  5
588
100
AcDbEntity
  8
A-WALL-SHKE
100
AcDbLine
 10
-63.248227
 20
92.637432
 30
0.0
 11
-63.248227
 21
85.512432
 31
0.0
  0
LINE
  5
58D
100
AcDbEntity
  8
A-WALL-SHKE
100
AcDbLine
 10
-68.019665
 20
85.512432
 30
0.0
 11
-68.019665
 21
78.387432
 31
0.0
  0
LINE
  5
58E
100
AcDbEntity
  8
A-WALL-SHKE
100
AcDbLine
 10
-68.207165
 20
85.512432
 30
0.0
 11
-68.207165
 21
78.387432
 31
0.0
  0
LINE
  5
58F
100
AcDbEntity
  8
A-WALL-SHKE
100
AcDbLine
 10
-60.639331
 20
85.512432
 30
0.0
 11
-60.639331
 21
78.387432
 31
0.0
  0
LINE
  5
590
100
AcDbEntity
  8
A-WALL-SHKE
100
AcDbLine
 10
-60.826831
 20
85.512432
 30
0.0
 11
-60.826831
 21
78.387432
 31
0.0
  0
LINE
  5
593
100
AcDbEntity
  8
A-WALL-SHKE
100
AcDbLine
 10
-56.055394
 20
92.637432
 30
0.0
 11
-56.055394
 21
85.512432
 31
0.0
  0
LINE
  5
594
100
AcDbEntity
  8
A-WALL-SHKE
100
AcDbLine
 10
-55.867894
 20
92.637432
 30
0.0
 11
-55.867894
 21
85.512432
 31
0.0
  0
LINE
  5
597
100
AcDbEntity
  8
A-WALL-SHKE
100
AcDbLine
 10
-48.617894
 20
92.637432
 30
0.0
 11
-48.617894
 21
85.512432
 31
0.0
  0
LINE
  5
598
100
AcDbEntity
  8
A-WALL-SHKE
100
AcDbLine
 10
-48.430394
 20
92.637432
 30
0.0
 11
-48.430394
 21
85.512432
 31
0.0
  0
LINE
  5
59B
100
AcDbEntity
  8
A-WALL-SHKE
100
AcDbLine
 10
-41.23756
 20
92.637432
 30
0.0
 11
-41.23756
 21
85.512432
 31
0.0
  0
LINE
  5
59C
100
AcDbEntity
  8
A-WALL-SHKE
100
AcDbLine
 10
-41.05006
 20
92.637432
 30
0.0
 11
-41.05006
 21
85.512432
 31
0.0
  0
LINE
  5
59F
100
AcDbEntity
  8
A-WALL-SHKE
100
AcDbLine
 10
-53.201831
 20
85.512432
 30
0.0
 11
-53.201831
 21
78.387432
 31
0.0
  0
LINE
  5
5A0
100
AcDbEntity
  8
A-WALL-SHKE
100
AcDbLine
 10
-53.389331
 20
85.512432
 30
0.0
 11
-53.389331
 21
78.387432
 31
0.0
  0
LINE
  5
5A3
100
AcDbEntity
  8
A-WALL-SHKE
100
AcDbLine
 10
-45.821497
 20
85.512432
 30
0.0
 11
-45.821497
 21
78.387432
 31
0.0
  0
LINE
  5
5A4
100
AcDbEntity
  8
A-WALL-SHKE
100
AcDbLine
 10
-46.008997
 20
85.512432
 30
0.0
 11
-46.008997
 21
78.387432
 31
0.0
  0
LINE
  5
5AC
100
AcDbEntity
  8
A-WALL-SHKE
100
AcDbLine
 10
-33.80006
 20
93.762432
 30
0.0
 11
-33.80006
 21
85.512432
 31
0.0
  0
LINE
  5
5AD
100
AcDbEntity
  8
A-WALL-SHKE
100
AcDbLine
 10
-33.61256
 20
93.762432
 30
0.0
 11
-33.61256
 21
85.512432
 31
0.0
  0
LINE
  5
5B0
100
AcDbEntity
  8
A-WALL-SHKE
100
AcDbLine
 10
-26.008997
 20
93.762432
 30
0.0
 11
-26.008997
 21
85.512432
 31
0.0
  0
LINE
  5
5B1
100
AcDbEntity
  8
A-WALL-SHKE
100
AcDbLine
 10
-26.196497
 20
93.762432
 30
0.0
 11
-26.196497
 21
85.512432
 31
0.0
  0
LINE
  5
5B3
100
AcDbEntity
  8
A-WALL-SHKE
100
AcDbLine
 10
-38.383997
 20
85.512432
 30
0.0
 11
-38.383997
 21
78.387432
 31
0.0
  0
LINE
  5
5B4
100
AcDbEntity
  8
A-WALL-SHKE
100
AcDbLine
 10
-38.571497
 20
85.512432
 30
0.0
 11
-38.571497
 21
78.387432
 31
0.0
  0
LINE
  5
5B7
100
AcDbEntity
  8
A-WALL-SHKE
100
AcDbLine
 10
-31.191163
 20
78.387432
 30
0.0
 11
-31.191163
 21
85.512432
 31
0.0
  0
LINE
  5
5B8
100
AcDbEntity
  8
A-WALL-SHKE
100
AcDbLine
 10
-31.003663
 20
78.387432
 30
0.0
 11
-31.003663
 21
85.512432
 31
0.0
  0
LINE
  5
5BB
100
AcDbEntity
  8
A-WALL-SHKE
100
AcDbLine
 10
-25.383997
 20
85.512432
 30
0.0
 11
-25.383997
 21
78.387432
 31
0.0
  0
LINE
  5
5BC
100
AcDbEntity
  8
A-WALL-SHKE
100
AcDbLine
 10
-25.196497
 20
85.512432
 30
0.0
 11
-25.196497
 21
78.387432
 31
0.0
  0
LINE
  5
5BE
100
AcDbEntity
  8
A-WALL-SHKE
100
AcDbLine
 10
-21.821497
 20
86.512432
 30
0.0
 11
-21.821497
 21
78.387432
 31
0.0
  0
LINE
  5
5C0
100
AcDbEntity
  8
A-WALL-SHKE
100
AcDbLine
 10
-21.821497
 20
78.387432
 30
0.0
 11
-90.462498
 21
78.387432
 31
0.0
  0
LINE
  5
5C2
100
AcDbEntity
  8
A-WALL-SHKE
100
AcDbLine
 10
-38.293443
 20
99.762432
 30
0.0
 11
-91.644665
 21
99.762432
 31
0.0
  0
LINE
  5
5C3
100
AcDbEntity
  8
A-WALL-SHKE
100
AcDbLine
 10
-37.821497
 20
92.637432
 30
0.0
 11
-91.644665
 21
92.637432
 31
0.0
  0
LINE
  5
5DA
100
AcDbEntity
  8
A-WALL-SHKE
100
AcDbLine
 10
-91.644665
 20
99.762432
 30
0.0
 11
-91.644665
 21
92.637432
 31
0.0
  0
LINE
  5
5DE
100
AcDbEntity
  8
A-WALL-SHKE
100
AcDbLine
 10
-84.019665
 20
99.762432
 30
0.0
 11
-84.019665
 21
92.637432
 31
0.0
  0
LINE
  5
5DF
100
AcDbEntity
  8
A-WALL-SHKE
100
AcDbLine
 10
-84.207165
 20
99.762432
 30
0.0
 11
-84.207165
 21
92.637432
 31
0.0
  0
LINE
  5
5E0
100
AcDbEntity
  8
A-WALL-SHKE
100
AcDbLine
 10
-76.639331
 20
99.762432
 30
0.0
 11
-76.639331
 21
92.637432
 31
0.0
  0
LINE
  5
5E1
100
AcDbEntity
  8
A-WALL-SHKE
100
AcDbLine
 10
-76.826831
 20
99.762432
 30
0.0
 11
-76.826831
 21
92.637432
 31
0.0
  0
LINE
  5
5E6
100
AcDbEntity
  8
A-WALL-SHKE
100
AcDbLine
 10
-69.201831
 20
99.762432
 30
0.0
 11
-69.201831
 21
92.637432
 31
0.0
  0
LINE
  5
5E7
100
AcDbEntity
  8
A-WALL-SHKE
100
AcDbLine
 10
-69.389331
 20
99.762432
 30
0.0
 11
-69.389331
 21
92.637432
 31
0.0
  0
LINE
  5
5EA
100
AcDbEntity
  8
A-WALL-SHKE
100
AcDbLine
 10
-61.821497
 20
99.762432
 30
0.0
 11
-61.821497
 21
92.637432
 31
0.0
  0
LINE
  5
5EB
100
AcDbEntity
  8
A-WALL-SHKE
100
AcDbLine
 10
-62.008997
 20
99.762432
 30
0.0
 11
-62.008997
 21
92.637432
 31
0.0
  0
LINE
  5
5F1
100
AcDbEntity
  8
A-WALL-SHKE
100
AcDbLine
 10
-54.383997
 20
99.762432
 30
0.0
 11
-54.383997
 21
92.637432
 31
0.0
  0
LINE
  5
5F2
100
AcDbEntity
  8
A-WALL-SHKE
100
AcDbLine
 10
-54.571497
 20
99.762432
 30
0.0
 11
-54.571497
 21
92.637432
 31
0.0
  0
LINE
  5
5F5
100
AcDbEntity
  8
A-WALL-SHKE
100
AcDbLine
 10
-47.191163
 20
92.637432
 30
0.0
 11
-47.191163
 21
99.762432
 31
0.0
  0
LINE
  5
5F6
100
AcDbEntity
  8
A-WALL-SHKE
100
AcDbLine
 10
-47.003663
 20
92.637432
 30
0.0
 11
-47.003663
 21
99.762432
 31
0.0
  0
LINE
  5
5F9
100
AcDbEntity
  8
A-WALL-SHKE
100
AcDbLine
 10
-42.721454
 20
99.762432
 30
0.0
 11
-42.721454
 21
92.637432
 31
0.0
  0
LINE
  5
5FA
100
AcDbEntity
  8
A-WALL-SHKE
100
AcDbLine
 10
-42.533954
 20
99.762432
 30
0.0
 11
-42.533954
 21
92.637432
 31
0.0
  0
LINE
  5
611
100
AcDbEntity
  8
A-WALL-SHKE
100
AcDbLine
 10
-90.691061
 20
106.887432
 30
0.0
 11
-90.691061
 21
99.762432
 31
0.0
  0
LINE
  5
614
100
AcDbEntity
  8
A-WALL-SHKE
100
AcDbLine
 10
-82.310727
 20
106.887432
 30
0.0
 11
-82.310727
 21
99.762432
 31
0.0
  0
LINE
  5
615
100
AcDbEntity
  8
A-WALL-SHKE
100
AcDbLine
 10
-82.498227
 20
106.887432
 30
0.0
 11
-82.498227
 21
99.762432
 31
0.0
  0
LINE
  5
618
100
AcDbEntity
  8
A-WALL-SHKE
100
AcDbLine
 10
-75.685727
 20
106.887432
 30
0.0
 11
-75.685727
 21
99.762432
 31
0.0
  0
LINE
  5
619
100
AcDbEntity
  8
A-WALL-SHKE
100
AcDbLine
 10
-75.873227
 20
106.887432
 30
0.0
 11
-75.873227
 21
99.762432
 31
0.0
  0
LINE
  5
61E
100
AcDbEntity
  8
A-WALL-SHKE
100
AcDbLine
 10
-67.492894
 20
106.887432
 30
0.0
 11
-67.492894
 21
99.762432
 31
0.0
  0
LINE
  5
61F
100
AcDbEntity
  8
A-WALL-SHKE
100
AcDbLine
 10
-67.680394
 20
106.887432
 30
0.0
 11
-67.680394
 21
99.762432
 31
0.0
  0
LINE
  5
622
100
AcDbEntity
  8
A-WALL-SHKE
100
AcDbLine
 10
-60.867894
 20
106.887432
 30
0.0
 11
-60.867894
 21
99.762432
 31
0.0
  0
LINE
  5
623
100
AcDbEntity
  8
A-WALL-SHKE
100
AcDbLine
 10
-61.055394
 20
106.887432
 30
0.0
 11
-61.055394
 21
99.762432
 31
0.0
  0
LINE
  5
628
100
AcDbEntity
  8
A-WALL-SHKE
100
AcDbLine
 10
-46.42506
 20
99.762432
 30
0.0
 11
-46.42506
 21
106.887432
 31
0.0
  0
LINE
  5
629
100
AcDbEntity
  8
A-WALL-SHKE
100
AcDbLine
 10
-46.23756
 20
99.762432
 30
0.0
 11
-46.23756
 21
106.887432
 31
0.0
  0
LINE
  5
62C
100
AcDbEntity
  8
A-WALL-SHKE
100
AcDbLine
 10
-52.67506
 20
106.887432
 30
0.0
 11
-52.67506
 21
99.762432
 31
0.0
  0
LINE
  5
62D
100
AcDbEntity
  8
A-WALL-SHKE
100
AcDbLine
 10
-52.86256
 20
106.887432
 30
0.0
 11
-52.86256
 21
99.762432
 31
0.0
  0
LINE
  5
62E
100
AcDbEntity
  8
A-WALL-SHKE
100
AcDbLine
 10
-37.821497
 20
100.762432
 30
0.0
 11
-37.821497
 21
92.637432
 31
0.0
  0
LINE
  5
630
100
AcDbEntity
  8
A-WALL-SHKE
100
AcDbLine
 10
-38.293443
 20
106.887432
 30
0.0
 11
-90.691061
 21
106.887432
 31
0.0
  0
LINE
  5
632
102
{ACAD_REACTORS
330
2762
102
}
100
AcDbEntity
  8
A-WALL-STUD
100
AcDbLine
 10
-5.821497
 20
79.512432
 30
0.0
 11
-5.821497
 21
107.887432
 31
0.0
  0
LINE
  5
633
102
{ACAD_REACTORS
330
12F5
102
}
100
AcDbEntity
  8
A-WALL-STUD
100
AcDbLine
 10
-7.321497
 20
98.668473
 30
0.0
 11
-7.321497
 21
107.887432
 31
0.0
  0
LINE
  5
634
100
AcDbEntity
  8
A-WALL-STUD
100
AcDbLine
 10
-5.821497
 20
107.887432
 30
0.0
 11
-7.321497
 21
107.887432
 31
0.0
  0
LINE
  5
638
100
AcDbEntity
  8
A-WALL-STUD
100
AcDbLine
 10
-23.321497
 20
106.887432
 30
0.0
 11
-23.321497
 21
107.887432
 31
0.0
  0
LINE
  5
639
100
AcDbEntity
  8
A-WALL-STUD
100
AcDbLine
 10
-21.821497
 20
107.887432
 30
0.0
 11
-23.321497
 21
107.887432
 31
0.0
  0
LINE
  5
63D
100
AcDbEntity
  8
A-WALL-STUD
100
AcDbLine
 10
-39.321497
 20
106.887432
 30
0.0
 11
-39.321497
 21
107.887432
 31
0.0
  0
LINE
  5
63E
100
AcDbEntity
  8
A-WALL-STUD
100
AcDbLine
 10
-37.821497
 20
107.887432
 30
0.0
 11
-39.321497
 21
107.887432
 31
0.0
  0
LINE
  5
642
100
AcDbEntity
  8
A-WALL-STUD
100
AcDbLine
 10
-55.321497
 20
106.887432
 30
0.0
 11
-55.321497
 21
107.887432
 31
0.0
  0
LINE
  5
643
100
AcDbEntity
  8
A-WALL-STUD
100
AcDbLine
 10
-53.821497
 20
107.887432
 30
0.0
 11
-55.321497
 21
107.887432
 31
0.0
  0
LINE
  5
647
100
AcDbEntity
  8
A-WALL-STUD
100
AcDbLine
 10
-71.321497
 20
106.887432
 30
0.0
 11
-71.321497
 21
107.887432
 31
0.0
  0
LINE
  5
648
100
AcDbEntity
  8
A-WALL-STUD
100
AcDbLine
 10
-69.821497
 20
107.887432
 30
0.0
 11
-71.321497
 21
107.887432
 31
0.0
  0
LINE
  5
64C
100
AcDbEntity
  8
A-WALL-STUD
100
AcDbLine
 10
-87.321497
 20
106.887432
 30
0.0
 11
-87.321497
 21
107.887432
 31
0.0
  0
LINE
  5
64D
100
AcDbEntity
  8
A-WALL-STUD
100
AcDbLine
 10
-85.821497
 20
107.887432
 30
0.0
 11
-87.321497
 21
107.887432
 31
0.0
  0
LINE
  5
650
100
AcDbEntity
  8
A-WALL-STUD
100
AcDbLine
 10
-21.821497
 20
106.887432
 30
0.0
 11
-21.821497
 21
107.887432
 31
0.0
  0
LINE
  5
651
100
AcDbEntity
  8
A-WALL-STUD
100
AcDbLine
 10
-37.821497
 20
106.887432
 30
0.0
 11
-37.821497
 21
107.887432
 31
0.0
  0
LINE
  5
652
100
AcDbEntity
  8
A-WALL-STUD
100
AcDbLine
 10
-53.821497
 20
106.887432
 30
0.0
 11
-53.821497
 21
107.887432
 31
0.0
  0
LINE
  5
653
100
AcDbEntity
  8
A-WALL-STUD
100
AcDbLine
 10
-69.821497
 20
106.887432
 30
0.0
 11
-69.821497
 21
107.887432
 31
0.0
  0
LINE
  5
654
100
AcDbEntity
  8
A-WALL-STUD
100
AcDbLine
 10
-85.821497
 20
106.887432
 30
0.0
 11
-85.821497
 21
107.887432
 31
0.0
  0
LINE
  5
655
102
{ACAD_REACTORS
330
12F5
330
2762
102
}
100
AcDbEntity
  8
A-WALL-SHTH
100
AcDbLine
 10
-7.321497
 20
106.887432
 30
0.0
 11
-38.293443
 21
106.887432
 31
0.0
  0
ARC
  5
657
102
{ACAD_REACTORS
330
2762
102
}
100
AcDbEntity
  8
A-WALL-SHTH
100
AcDbCircle
 10
-33.84471
 20
92.424009
 30
0.0
 40
14.468047
100
AcDbArc
 50
1.98189
 51
88.55136
  0
ARC
  5
658
102
{ACAD_REACTORS
330
2762
102
}
100
AcDbEntity
  8
A-WALL-SHTH
100
AcDbCircle
 10
-20.546272
 20
77.813828
 30
0.0
 40
15.155072
100
AcDbArc
 50
13.685965
 51
85.60655
  0
ARC
  5
659
100
AcDbEntity
  8
A-WALL-SHTH
100
AcDbCircle
 10
-20.895942
 20
76.583729
 30
0.0
 40
15.825003
100
AcDbArc
 50
17.716975
 51
86.27188
  0
ARC
  5
65A
100
AcDbEntity
  8
A-WALL-SHTH
100
AcDbCircle
 10
-34.757153
 20
92.048615
 30
0.0
 40
14.893768
100
AcDbArc
 50
1.256631
 51
85.076725
  0
LINE
  5
65D
102
{ACAD_REACTORS
330
12F5
102
}
100
AcDbEntity
  8
A-WALL-SHTH
100
AcDbLine
 10
-15.540456
 20
106.887432
 30
0.0
 11
-5.821497
 21
97.168473
 31
0.0
  0
ARC
  5
65E
102
{ACAD_REACTORS
330
2762
102
}
100
AcDbEntity
  8
A-WALL-SHTH
100
AcDbCircle
 10
-41.464889
 20
71.113416
 30
0.0
 40
37.097915
100
AcDbArc
 50
16.09728
 51
70.817961
  0
LINE
  5
660
100
AcDbEntity
  8
A-WALL-SHTH
100
AcDbLine
 10
-19.385317
 20
92.924366
 30
0.0
 11
-19.866968
 21
92.375244
 31
0.0
  0
LINE
  5
113E
100
AcDbEntity
  8
A-WALL-STUD
100
AcDbLine
 10
18.062442
 20
107.887432
 30
0.0
 11
18.062442
 21
64.137432
 31
0.0
  0
LINE
  5
113F
100
AcDbEntity
  8
A-WALL-STUD
100
AcDbLine
 10
21.562442
 20
107.887432
 30
0.0
 11
21.562442
 21
64.137432
 31
0.0
  0
LINE
  5
1140
100
AcDbEntity
  8
A-WALL-SHKE
100
AcDbLine
 10
16.961525
 20
99.607078
 30
0.0
 11
16.722939
 21
93.736924
 31
0.0
  0
LINE
  5
1141
100
AcDbEntity
  8
A-WALL-SHKE
100
AcDbLine
 10
16.5127
 20
100.876352
 30
0.0
 11
16.177665
 21
92.633158
 31
0.0
  0
LINE
  5
1142
100
AcDbEntity
  8
A-WALL-SHKE
100
AcDbLine
 10
16.762494
 20
100.866199
 30
0.0
 11
16.427459
 21
92.623005
 31
0.0
  0
LINE
  5
1143
100
AcDbEntity
  8
A-WALL-SHTH
100
AcDbLine
 10
16.962442
 20
106.609422
 30
0.0
 11
16.962442
 21
65.137432
 31
0.0
  0
LINE
  5
1147
100
AcDbEntity
  8
A-WALL-SHKE
100
AcDbLine
 10
16.962442
 20
78.231128
 30
0.0
 11
16.75525
 21
72.364552
 31
0.0
  0
LINE
  5
1148
100
AcDbEntity
  8
A-WALL-SHKE
100
AcDbLine
 10
16.517442
 20
79.501748
 30
0.0
 11
16.206654
 21
71.262432
 31
0.0
  0
LINE
  5
1149
100
AcDbEntity
  8
A-WALL-SHKE
100
AcDbLine
 10
16.767204
 20
79.490843
 30
0.0
 11
16.456416
 21
71.251528
 31
0.0
  0
LINE
  5
114A
100
AcDbEntity
  8
A-WALL-SHKE
100
AcDbLine
 10
16.505488
 20
72.375457
 30
0.0
 11
16.145628
 21
64.133309
 31
0.0
  0
LINE
  5
114B
100
AcDbEntity
  8
A-WALL-SHKE
100
AcDbLine
 10
16.75525
 20
72.364552
 30
0.0
 11
16.39539
 21
64.122404
 31
0.0
  0
LINE
  5
11FD
100
AcDbEntity
  8
A-WALL-SHKE
100
AcDbLine
 10
16.145628
 20
64.133309
 30
0.0
 11
16.39539
 21
64.122404
 31
0.0
  0
LINE
  5
1200
100
AcDbEntity
  8
A-WALL-SHKE
100
AcDbLine
 10
16.950488
 20
71.104837
 30
0.0
 11
16.694224
 21
65.235429
 31
0.0
  0
LINE
  5
1201
100
AcDbEntity
  8
A-WALL-SHKE
100
AcDbLine
 10
16.444462
 20
65.246333
 30
0.0
 11
16.694224
 21
65.235429
 31
0.0
  0
LINE
  5
1203
100
AcDbEntity
  8
A-WALL-SHKE
100
AcDbLine
 10
16.700725
 20
71.115742
 30
0.0
 11
16.950488
 21
71.104837
 31
0.0
  0
LINE
  5
1204
100
AcDbEntity
  8
A-WALL-SHKE
100
AcDbLine
 10
16.206654
 20
71.262432
 30
0.0
 11
16.456416
 21
71.251528
 31
0.0
  0
LINE
  5
1205
100
AcDbEntity
  8
A-WALL-SHKE
100
AcDbLine
 10
16.505488
 20
72.375457
 30
0.0
 11
16.75525
 21
72.364552
 31
0.0
  0
LINE
  5
1206
100
AcDbEntity
  8
A-WALL-SHKE
100
AcDbLine
 10
16.722919
 20
93.736379
 30
0.0
 11
16.464636
 21
85.50337
 31
0.0
  0
LINE
  5
1207
100
AcDbEntity
  8
A-WALL-SHKE
100
AcDbLine
 10
16.473083
 20
93.745442
 30
0.0
 11
16.214801
 21
85.512432
 31
0.0
  0
LINE
  5
1208
100
AcDbEntity
  8
A-WALL-SHKE
100
AcDbLine
 10
16.927442
 20
92.478138
 30
0.0
 11
16.755253
 21
86.618568
 31
0.0
  0
LINE
  5
1209
100
AcDbEntity
  8
A-WALL-SHKE
100
AcDbLine
 10
16.959776
 20
85.360327
 30
0.0
 11
16.746806
 21
79.489188
 31
0.0
  0
LINE
  5
120A
100
AcDbEntity
  8
A-WALL-SHKE
100
AcDbLine
 10
16.505418
 20
86.62763
 30
0.0
 11
16.206353
 21
78.383053
 31
0.0
  0
LINE
  5
120B
100
AcDbEntity
  8
A-WALL-SHKE
100
AcDbLine
 10
16.755253
 20
86.618568
 30
0.0
 11
16.456189
 21
78.37399
 31
0.0
  0
LINE
  5
120D
100
AcDbEntity
  8
A-WALL-SHKE
100
AcDbLine
 10
16.720086
 20
78.24171
 30
0.0
 11
16.962442
 21
78.231128
 31
0.0
  0
LINE
  5
120E
100
AcDbEntity
  8
A-WALL-SHKE
100
AcDbLine
 10
16.206353
 20
78.383053
 30
0.0
 11
16.456189
 21
78.37399
 31
0.0
  0
LINE
  5
1210
100
AcDbEntity
  8
A-WALL-SHKE
100
AcDbLine
 10
16.517442
 20
79.501748
 30
0.0
 11
16.767204
 21
79.490843
 31
0.0
  0
LINE
  5
1212
100
AcDbEntity
  8
A-WALL-SHKE
100
AcDbLine
 10
16.709941
 20
85.369389
 30
0.0
 11
16.959776
 21
85.360327
 31
0.0
  0
LINE
  5
1213
100
AcDbEntity
  8
A-WALL-SHKE
100
AcDbLine
 10
16.214801
 20
85.512432
 30
0.0
 11
16.464636
 21
85.50337
 31
0.0
  0
LINE
  5
1214
100
AcDbEntity
  8
A-WALL-SHKE
100
AcDbLine
 10
16.505418
 20
86.62763
 30
0.0
 11
16.755253
 21
86.618568
 31
0.0
  0
LINE
  5
121A
100
AcDbEntity
  8
A-WALL-SHKE
100
AcDbLine
 10
16.683723
 20
92.486979
 30
0.0
 11
16.927442
 21
92.478138
 31
0.0
  0
LINE
  5
121B
100
AcDbEntity
  8
A-WALL-SHKE
100
AcDbLine
 10
16.177665
 20
92.633158
 30
0.0
 11
16.427459
 21
92.623005
 31
0.0
  0
LINE
  5
121C
100
AcDbEntity
  8
A-WALL-SHKE
100
AcDbLine
 10
16.177665
 20
92.633158
 30
0.0
 11
16.427459
 21
92.623005
 31
0.0
  0
LINE
  5
121E
100
AcDbEntity
  8
A-WALL-SHKE
100
AcDbLine
 10
16.473146
 20
93.747077
 30
0.0
 11
16.722939
 21
93.736924
 31
0.0
  0
LINE
  5
12D3
100
AcDbEntity
  8
A-WALL-SHKE
100
AcDbLine
 10
16.955393
 20
105.796634
 30
0.0
 11
16.762494
 21
100.866199
 31
0.0
  0
LINE
  5
12D4
100
AcDbEntity
  8
A-WALL-SHKE
100
AcDbLine
 10
16.506569
 20
106.815908
 30
0.0
 11
16.21722
 21
99.762432
 31
0.0
  0
LINE
  5
12D5
100
AcDbEntity
  8
A-WALL-SHKE
100
AcDbLine
 10
16.756362
 20
106.805755
 30
0.0
 11
16.467014
 21
99.75228
 31
0.0
  0
LINE
  5
12D7
100
AcDbEntity
  8
A-WALL-SHKE
100
AcDbLine
 10
16.711731
 20
99.61723
 30
0.0
 11
16.961525
 21
99.607078
 31
0.0
  0
LINE
  5
12D8
100
AcDbEntity
  8
A-WALL-SHKE
100
AcDbLine
 10
16.21722
 20
99.762432
 30
0.0
 11
16.467014
 21
99.75228
 31
0.0
  0
LINE
  5
12D9
100
AcDbEntity
  8
A-WALL-SHKE
100
AcDbLine
 10
16.5127
 20
100.876352
 30
0.0
 11
16.762494
 21
100.866199
 31
0.0
  0
LINE
  5
12DB
100
AcDbEntity
  8
A-WALL-SHKE
100
AcDbLine
 10
16.715366
 20
105.80639
 30
0.0
 11
16.955393
 21
105.796634
 31
0.0
  0
LINE
  5
12DC
100
AcDbEntity
  8
A-WALL-SHKE
100
AcDbLine
 10
16.506569
 20
106.815908
 30
0.0
 11
16.756362
 21
106.805755
 31
0.0
  0
LINE
  5
12DD
100
AcDbEntity
  8
A-WALL-STUD
100
AcDbLine
 10
18.062442
 20
107.887432
 30
0.0
 11
21.562442
 21
107.887432
 31
0.0
  0
LINE
  5
12DE
100
AcDbEntity
  8
A-WALL-SHTH
100
AcDbLine
 10
17.062442
 20
106.887432
 30
0.0
 11
17.062442
 21
64.137432
 31
0.0
  0
LINE
  5
12DF
100
AcDbEntity
  8
A-WALL-SHTH
100
AcDbLine
 10
17.062442
 20
106.887432
 30
0.0
 11
18.062442
 21
106.887432
 31
0.0
  0
LINE
  5
12E0
100
AcDbEntity
  8
A-WALL-SHTH
100
AcDbLine
 10
17.062442
 20
64.137432
 30
0.0
 11
17.562442
 21
64.137432
 31
0.0
  0
LINE
  5
12E4
100
AcDbEntity
  8
A-WALL-SHTH
100
AcDbLine
 10
22.187442
 20
106.887432
 30
0.0
 11
22.187442
 21
64.137432
 31
0.0
  0
LINE
  5
12E7
100
AcDbEntity
  8
A-WALL-SHTH
100
AcDbLine
 10
21.562442
 20
106.887432
 30
0.0
 11
22.187442
 21
106.887432
 31
0.0
  0
LINE
  5
12E8
100
AcDbEntity
  8
A-WALL-SHTH
100
AcDbLine
 10
21.562442
 20
64.137432
 30
0.0
 11
22.187442
 21
64.137432
 31
0.0
  0
HATCH
  5
12F5
100
AcDbEntity
  8
A-WALL-SHKE
100
AcDbHatch
 10
0.0
 20
0.0
 30
0.0
210
0.0
220
0.0
230
1.0
  2
AR-SAND
 70
     0
 71
     1
 91
        1
 92
        7
 72
     0
 73
     1
 93
        3
 10
-7.321496892451084
 20
98.6684733571152
 10
-7.32149689245108
 20
106.8874324244527
 10
-15.54045595978858
 20
106.8874324244527
 97
        3
330
655
330
65D
330
633
 75
     0
 76
     1
 52
0.0
 41
0.5
 77
     0
 78
     4
 53
37.5
 43
126.431726
 44
84.642504
 45
-0.0314966790548041
 46
0.9634118845065792
 79
     6
 49
0.0
 49
-0.76
 49
0.0
 49
-0.85
 49
0.0
 49
-0.8125
 53
7.5
 43
126.431726
 44
84.642504
 45
0.8848883526338635
 46
1.41107303261487
 79
     6
 49
0.0
 49
-0.41
 49
0.0
 49
-0.685
 49
0.0
 49
-0.2625
 53
327.5
 43
125.816726
 44
84.642504
 45
1.557070930875747
 46
0.0028295267684823
 79
     6
 49
0.0
 49
-0.25
 49
0.0
 49
-0.9
 49
0.0
 49
-1.175
 53
317.5
 43
125.816726
 44
84.642504
 45
1.503063302286146
 46
0.4388377824671246
 79
     6
 49
0.0
 49
-0.125
 49
0.0
 49
-0.59
 49
0.0
 49
-0.675
 47
0.091946
 98
        1
 10
-9.936193
 20
103.998515
  0
LINE
  5
12FE
100
AcDbEntity
  8
A-WALL-SHKE
100
AcDbLine
 10
-5.821497
 20
79.512432
 30
0.0
 11
-21.821497
 21
79.512432
 31
0.0
  0
LINE
  5
12FF
100
AcDbEntity
  8
A-WALL-SHKE
100
AcDbLine
 10
-22.378295
 20
93.762432
 30
0.0
 11
-37.821497
 21
93.762432
 31
0.0
  0
LINE
  5
131F
100
AcDbEntity
  8
A-WALL-SHKE
100
AcDbLine
 10
-38.293443
 20
99.762432
 30
0.0
 11
-38.293443
 21
106.887432
 31
0.0
  0
LINE
  5
1323
100
AcDbEntity
  8
A-WALL-SHKE
100
AcDbLine
 10
-22.378295
 20
93.762432
 30
0.0
 11
-22.378295
 21
85.512432
 31
0.0
  0
CIRCLE
  5
1E3E
100
AcDbEntity
  8
A-HATCH
100
AcDbCircle
 10
-8.63275
 20
96.791945
 30
0.0
 40
0.612838
  0
POLYLINE
  5
1FE8
100
AcDbEntity
  8
A-HATCH
100
AcDb2dPolyline
 66
     1
 10
0.0
 20
0.0
 30
0.0
 70
     4
 75
     6
  0
VERTEX
  5
2791
100
AcDbEntity
  8
A-HATCH
100
AcDbVertex
100
AcDb2dVertex
 10
-11.780765
 20
103.127742
 30
0.0
 70
    16
  0
VERTEX
  5
2792
100
AcDbEntity
  8
A-HATCH
100
AcDbVertex
100
AcDb2dVertex
 10
-11.780765
 20
103.127742
 30
0.0
 70
     8
  0
VERTEX
  5
2793
100
AcDbEntity
  8
A-HATCH
100
AcDbVertex
100
AcDb2dVertex
 10
-11.914407
 20
103.082645
 30
0.0
 70
     8
  0
VERTEX
  5
2794
100
AcDbEntity
  8
A-HATCH
100
AcDbVertex
100
AcDb2dVertex
 10
-12.06666
 20
103.033786
 30
0.0
 70
     8
  0
VERTEX
  5
2795
100
AcDbEntity
  8
A-HATCH
100
AcDbVertex
100
AcDb2dVertex
 10
-12.235008
 20
102.984598
 30
0.0
 70
     8
  0
VERTEX
  5
2796
100
AcDbEntity
  8
A-HATCH
100
AcDbVertex
100
AcDb2dVertex
 10
-12.416937
 20
102.938514
 30
0.0
 70
     8
  0
VERTEX
  5
2797
100
AcDbEntity
  8
A-HATCH
100
AcDbVertex
100
AcDb2dVertex
 10
-12.609931
 20
102.89897
 30
0.0
 70
     8
  0
VERTEX
  5
2798
100
AcDbEntity
  8
A-HATCH
100
AcDbVertex
100
AcDb2dVertex
 10
-12.811475
 20
102.869398
 30
0.0
 70
     8
  0
VERTEX
  5
2799
100
AcDbEntity
  8
A-HATCH
100
AcDbVertex
100
AcDb2dVertex
 10
-13.019055
 20
102.853234
 30
0.0
 70
     8
  0
VERTEX
  5
279A
100
AcDbEntity
  8
A-HATCH
100
AcDbVertex
100
AcDb2dVertex
 10
-13.230154
 20
102.853909
 30
0.0
 70
     8
  0
VERTEX
  5
279B
100
AcDbEntity
  8
A-HATCH
100
AcDbVertex
100
AcDb2dVertex
 10
-13.442483
 20
102.873714
 30
0.0
 70
     8
  0
VERTEX
  5
279C
100
AcDbEntity
  8
A-HATCH
100
AcDbVertex
100
AcDb2dVertex
 10
-13.654653
 20
102.91035
 30
0.0
 70
     8
  0
VERTEX
  5
279D
100
AcDbEntity
  8
A-HATCH
100
AcDbVertex
100
AcDb2dVertex
 10
-13.865499
 20
102.960376
 30
0.0
 70
     8
  0
VERTEX
  5
279E
100
AcDbEntity
  8
A-HATCH
100
AcDbVertex
100
AcDb2dVertex
 10
-14.073856
 20
103.020349
 30
0.0
 70
     8
  0
VERTEX
  5
279F
100
AcDbEntity
  8
A-HATCH
100
AcDbVertex
100
AcDb2dVertex
 10
-14.278562
 20
103.086826
 30
0.0
 70
     8
  0
VERTEX
  5
27A0
100
AcDbEntity
  8
A-HATCH
100
AcDbVertex
100
AcDb2dVertex
 10
-14.478451
 20
103.156366
 30
0.0
 70
     8
  0
VERTEX
  5
27A1
100
AcDbEntity
  8
A-HATCH
100
AcDbVertex
100
AcDb2dVertex
 10
-14.672359
 20
103.225525
 30
0.0
 70
     8
  0
VERTEX
  5
27A2
100
AcDbEntity
  8
A-HATCH
100
AcDbVertex
100
AcDb2dVertex
 10
-14.859123
 20
103.29086
 30
0.0
 70
     8
  0
VERTEX
  5
27A3
100
AcDbEntity
  8
A-HATCH
100
AcDbVertex
100
AcDb2dVertex
 10
-15.037814
 20
103.349742
 30
0.0
 70
     8
  0
VERTEX
  5
27A4
100
AcDbEntity
  8
A-HATCH
100
AcDbVertex
100
AcDb2dVertex
 10
-15.208456
 20
103.402785
 30
0.0
 70
     8
  0
VERTEX
  5
27A5
100
AcDbEntity
  8
A-HATCH
100
AcDbVertex
100
AcDb2dVertex
 10
-15.371308
 20
103.451417
 30
0.0
 70
     8
  0
VERTEX
  5
27A6
100
AcDbEntity
  8
A-HATCH
100
AcDbVertex
100
AcDb2dVertex
 10
-15.52663
 20
103.497065
 30
0.0
 70
     8
  0
VERTEX
  5
27A7
100
AcDbEntity
  8
A-HATCH
100
AcDbVertex
100
AcDb2dVertex
 10
-15.674681
 20
103.541156
 30
0.0
 70
     8
  0
VERTEX
  5
27A8
100
AcDbEntity
  8
A-HATCH
100
AcDbVertex
100
AcDb2dVertex
 10
-15.815721
 20
103.585117
 30
0.0
 70
     8
  0
VERTEX
  5
27A9
100
AcDbEntity
  8
A-HATCH
100
AcDbVertex
100
AcDb2dVertex
 10
-15.95001
 20
103.630376
 30
0.0
 70
     8
  0
VERTEX
  5
27AA
100
AcDbEntity
  8
A-HATCH
100
AcDbVertex
100
AcDb2dVertex
 10
-16.077808
 20
103.678359
 30
0.0
 70
     8
  0
VERTEX
  5
27AB
100
AcDbEntity
  8
A-HATCH
100
AcDbVertex
100
AcDb2dVertex
 10
-16.19907
 20
103.73017
 30
0.0
 70
     8
  0
VERTEX
  5
27AC
100
AcDbEntity
  8
A-HATCH
100
AcDbVertex
100
AcDb2dVertex
 10
-16.312543
 20
103.785614
 30
0.0
 70
     8
  0
VERTEX
  5
27AD
100
AcDbEntity
  8
A-HATCH
100
AcDbVertex
100
AcDb2dVertex
 10
-16.416668
 20
103.844171
 30
0.0
 70
     8
  0
VERTEX
  5
27AE
100
AcDbEntity
  8
A-HATCH
100
AcDbVertex
100
AcDb2dVertex
 10
-16.509887
 20
103.905323
 30
0.0
 70
     8
  0
VERTEX
  5
27AF
100
AcDbEntity
  8
A-HATCH
100
AcDbVertex
100
AcDb2dVertex
 10
-16.590642
 20
103.968551
 30
0.0
 70
     8
  0
VERTEX
  5
27B0
100
AcDbEntity
  8
A-HATCH
100
AcDbVertex
100
AcDb2dVertex
 10
-16.657375
 20
104.033336
 30
0.0
 70
     8
  0
VERTEX
  5
27B1
100
AcDbEntity
  8
A-HATCH
100
AcDbVertex
100
AcDb2dVertex
 10
-16.708529
 20
104.099159
 30
0.0
 70
     8
  0
VERTEX
  5
27B2
100
AcDbEntity
  8
A-HATCH
100
AcDbVertex
100
AcDb2dVertex
 10
-16.742545
 20
104.165501
 30
0.0
 70
     8
  0
VERTEX
  5
27B3
100
AcDbEntity
  8
A-HATCH
100
AcDbVertex
100
AcDb2dVertex
 10
-16.758406
 20
104.231735
 30
0.0
 70
     8
  0
VERTEX
  5
27B4
100
AcDbEntity
  8
A-HATCH
100
AcDbVertex
100
AcDb2dVertex
 10
-16.757259
 20
104.296801
 30
0.0
 70
     8
  0
VERTEX
  5
27B5
100
AcDbEntity
  8
A-HATCH
100
AcDbVertex
100
AcDb2dVertex
 10
-16.740792
 20
104.359532
 30
0.0
 70
     8
  0
VERTEX
  5
27B6
100
AcDbEntity
  8
A-HATCH
100
AcDbVertex
100
AcDb2dVertex
 10
-16.710693
 20
104.41876
 30
0.0
 70
     8
  0
VERTEX
  5
27B7
100
AcDbEntity
  8
A-HATCH
100
AcDbVertex
100
AcDb2dVertex
 10
-16.668649
 20
104.473317
 30
0.0
 70
     8
  0
VERTEX
  5
27B8
100
AcDbEntity
  8
A-HATCH
100
AcDbVertex
100
AcDb2dVertex
 10
-16.616349
 20
104.522035
 30
0.0
 70
     8
  0
VERTEX
  5
27B9
100
AcDbEntity
  8
A-HATCH
100
AcDbVertex
100
AcDb2dVertex
 10
-16.555479
 20
104.563748
 30
0.0
 70
     8
  0
VERTEX
  5
27BA
100
AcDbEntity
  8
A-HATCH
100
AcDbVertex
100
AcDb2dVertex
 10
-16.487729
 20
104.597286
 30
0.0
 70
     8
  0
VERTEX
  5
27BB
100
AcDbEntity
  8
A-HATCH
100
AcDbVertex
100
AcDb2dVertex
 10
-16.414547
 20
104.621743
 30
0.0
 70
     8
  0
VERTEX
  5
27BC
100
AcDbEntity
  8
A-HATCH
100
AcDbVertex
100
AcDb2dVertex
 10
-16.336432
 20
104.637247
 30
0.0
 70
     8
  0
VERTEX
  5
27BD
100
AcDbEntity
  8
A-HATCH
100
AcDbVertex
100
AcDb2dVertex
 10
-16.253643
 20
104.644188
 30
0.0
 70
     8
  0
VERTEX
  5
27BE
100
AcDbEntity
  8
A-HATCH
100
AcDbVertex
100
AcDb2dVertex
 10
-16.166439
 20
104.642956
 30
0.0
 70
     8
  0
VERTEX
  5
27BF
100
AcDbEntity
  8
A-HATCH
100
AcDbVertex
100
AcDb2dVertex
 10
-16.075081
 20
104.633939
 30
0.0
 70
     8
  0
VERTEX
  5
27C0
100
AcDbEntity
  8
A-HATCH
100
AcDbVertex
100
AcDb2dVertex
 10
-15.979828
 20
104.617526
 30
0.0
 70
     8
  0
VERTEX
  5
27C1
100
AcDbEntity
  8
A-HATCH
100
AcDbVertex
100
AcDb2dVertex
 10
-15.88094
 20
104.594108
 30
0.0
 70
     8
  0
VERTEX
  5
27C2
100
AcDbEntity
  8
A-HATCH
100
AcDbVertex
100
AcDb2dVertex
 10
-15.778676
 20
104.564072
 30
0.0
 70
     8
  0
VERTEX
  5
27C3
100
AcDbEntity
  8
A-HATCH
100
AcDbVertex
100
AcDb2dVertex
 10
-15.673062
 20
104.528259
 30
0.0
 70
     8
  0
VERTEX
  5
27C4
100
AcDbEntity
  8
A-HATCH
100
AcDbVertex
100
AcDb2dVertex
 10
-15.563191
 20
104.489305
 30
0.0
 70
     8
  0
VERTEX
  5
27C5
100
AcDbEntity
  8
A-HATCH
100
AcDbVertex
100
AcDb2dVertex
 10
-15.44792
 20
104.450298
 30
0.0
 70
     8
  0
VERTEX
  5
27C6
100
AcDbEntity
  8
A-HATCH
100
AcDbVertex
100
AcDb2dVertex
 10
-15.326107
 20
104.414326
 30
0.0
 70
     8
  0
VERTEX
  5
27C7
100
AcDbEntity
  8
A-HATCH
100
AcDbVertex
100
AcDb2dVertex
 10
-15.196612
 20
104.384476
 30
0.0
 70
     8
  0
VERTEX
  5
27C8
100
AcDbEntity
  8
A-HATCH
100
AcDbVertex
100
AcDb2dVertex
 10
-15.05829
 20
104.363835
 30
0.0
 70
     8
  0
VERTEX
  5
27C9
100
AcDbEntity
  8
A-HATCH
100
AcDbVertex
100
AcDb2dVertex
 10
-14.910002
 20
104.35549
 30
0.0
 70
     8
  0
VERTEX
  5
27CA
100
AcDbEntity
  8
A-HATCH
100
AcDbVertex
100
AcDb2dVertex
 10
-14.750605
 20
104.36253
 30
0.0
 70
     8
  0
VERTEX
  5
27CB
100
AcDbEntity
  8
A-HATCH
100
AcDbVertex
100
AcDb2dVertex
 10
-14.57991
 20
104.386929
 30
0.0
 70
     8
  0
VERTEX
  5
27CC
100
AcDbEntity
  8
A-HATCH
100
AcDbVertex
100
AcDb2dVertex
 10
-14.401546
 20
104.426215
 30
0.0
 70
     8
  0
VERTEX
  5
27CD
100
AcDbEntity
  8
A-HATCH
100
AcDbVertex
100
AcDb2dVertex
 10
-14.220094
 20
104.476804
 30
0.0
 70
     8
  0
VERTEX
  5
27CE
100
AcDbEntity
  8
A-HATCH
100
AcDbVertex
100
AcDb2dVertex
 10
-14.040134
 20
104.53511
 30
0.0
 70
     8
  0
VERTEX
  5
27CF
100
AcDbEntity
  8
A-HATCH
100
AcDbVertex
100
AcDb2dVertex
 10
-13.866248
 20
104.59755
 30
0.0
 70
     8
  0
VERTEX
  5
27D0
100
AcDbEntity
  8
A-HATCH
100
AcDbVertex
100
AcDb2dVertex
 10
-13.703018
 20
104.660538
 30
0.0
 70
     8
  0
VERTEX
  5
27D1
100
AcDbEntity
  8
A-HATCH
100
AcDbVertex
100
AcDb2dVertex
 10
-13.555023
 20
104.720491
 30
0.0
 70
     8
  0
VERTEX
  5
27D2
100
AcDbEntity
  8
A-HATCH
100
AcDbVertex
100
AcDb2dVertex
 10
-13.426847
 20
104.773823
 30
0.0
 70
     8
  0
VERTEX
  5
1FE9
100
AcDbEntity
  8
A-HATCH
100
AcDbVertex
100
AcDb2dVertex
 10
-12.110093
 20
103.015554
 30
0.0
 70
    16
  0
VERTEX
  5
201B
100
AcDbEntity
  8
A-HATCH
100
AcDbVertex
100
AcDb2dVertex
 10
-13.219437
 20
102.637647
 30
0.0
 70
    16
  0
VERTEX
  5
201C
100
AcDbEntity
  8
A-HATCH
100
AcDbVertex
100
AcDb2dVertex
 10
-14.947754
 20
103.36836
 30
0.0
 70
    16
  0
VERTEX
  5
201D
100
AcDbEntity
  8
A-HATCH
100
AcDbVertex
100
AcDb2dVertex
 10
-16.144281
 20
103.634074
 30
0.0
 70
    16
  0
VERTEX
  5
201E
100
AcDbEntity
  8
A-HATCH
100
AcDbVertex
100
AcDb2dVertex
 10
-16.941966
 20
104.165501
 30
0.0
 70
    16
  0
VERTEX
  5
201F
100
AcDbEntity
  8
A-HATCH
100
AcDbVertex
100
AcDb2dVertex
 10
-16.543124
 20
104.696929
 30
0.0
 70
    16
  0
VERTEX
  5
2020
100
AcDbEntity
  8
A-HATCH
100
AcDbVertex
100
AcDb2dVertex
 10
-15.811913
 20
104.630501
 30
0.0
 70
    16
  0
VERTEX
  5
2021
100
AcDbEntity
  8
A-HATCH
100
AcDbVertex
100
AcDb2dVertex
 10
-14.88128
 20
104.165501
 30
0.0
 70
    16
  0
VERTEX
  5
2022
100
AcDbEntity
  8
A-HATCH
100
AcDbVertex
100
AcDb2dVertex
 10
-13.738156
 20
104.643617
 30
0.0
 70
    16
  0
VERTEX
  5
2132
100
AcDbEntity
  8
A-HATCH
100
AcDbVertex
100
AcDb2dVertex
 10
-13.426847
 20
104.773823
 30
0.0
 70
    16
  0
SEQEND
  5
2023
100
AcDbEntity
  8
A-HATCH
  0
CIRCLE
  5
2099
100
AcDbEntity
  8
A-HATCH
100
AcDbCircle
 10
-17.207861
 20
101.043365
 30
0.0
 40
0.612838
  0
LINE
  5
245B
100
AcDbEntity
  8
A-WALL-SHKE
100
AcDbLine
 10
-21.821497
 20
86.512432
 30
0.0
 11
-22.378295
 21
86.512432
 31
0.0
  0
LINE
  5
245C
100
AcDbEntity
  8
A-WALL-SHKE
100
AcDbLine
 10
-37.821497
 20
100.762432
 30
0.0
 11
-38.293443
 21
100.762432
 31
0.0
  0
HATCH
  5
246D
100
AcDbEntity
  8
A-HATCH
100
AcDbHatch
 10
0.0
 20
0.0
 30
0.0
210
0.0
220
0.0
230
1.0
  2
ANSI31
 70
     0
 71
     0
 91
        2
 92
        7
 72
     1
 73
     1
 93
       12
 10
-19.86696759586164
 20
92.37524428926825
 42
0.3829636455825562
 10
-33.47894542290064
 20
106.8874324244527
 42
0.0
 10
-38.29344258109893
 20
106.8874324244527
 42
0.0
 10
-38.29344258109893
 20
100.7624324244527
 42
0.0
 10
-37.82149689245105
 20
100.7624324244527
 42
0.0
 10
-37.82149689245107
 20
93.76243242445276
 42
0.0
 10
-22.37829462657275
 20
93.76243242445282
 42
0.0
 10
-22.37829462657275
 20
86.51243242445277
 42
0.0
 10
-21.82149689245108
 20
86.51243242445277
 42
0.0
 10
-21.82149689245107
 20
79.51243242445277
 42
0.0
 10
-5.82149689245108
 20
79.51243242445278
 42
0.0
 10
-5.821496892451079
 20
81.39951996334737
 42
0.3083801908805979
 97
        0
 92
       23
 72
     1
 73
     1
 93
        4
 10
-19.38531719895687
 20
92.92436643626487
 42
-0.2729360770354842
 10
-6.760303554691837
 20
84.1085290564853
 42
0.0
 10
-6.714106966556471
 20
84.09950412488411
 42
0.218675061572898
 10
-28.67344133359196
 20
105.9363138226606
 42
-0.3013268414097125
 97
        0
 75
     0
 76
     1
 52
0.0
 41
3.0
 77
     0
 78
     1
 53
45.0
 43
126.431726
 44
84.642504
 45
-0.2651650429449553
 46
0.2651650429449553
 79
     0
 47
0.105353
 98
        2
 10
-15.798799
 20
87.292642
 10
-18.118145
 20
95.510176
  0
LINE
  5
2472
100
AcDbEntity
  8
A-WALL-STUD
100
AcDbLine
 10
18.062442
 20
64.137432
 30
0.0
 11
21.562442
 21
64.137432
 31
0.0
  0
LINE
  5
2474
100
AcDbEntity
  8
A-WALL-STUD
100
AcDbLine
 10
16.562442
 20
65.137432
 30
0.0
 11
17.062442
 21
65.137432
 31
0.0
  0
LINE
  5
2475
100
AcDbEntity
  8
A-WALL-STUD
100
AcDbLine
 10
16.562442
 20
65.137432
 30
0.0
 11
16.562442
 21
64.137432
 31
0.0
  0
LINE
  5
2476
100
AcDbEntity
  8
A-WALL-STUD
100
AcDbLine
 10
17.062442
 20
64.137432
 30
0.0
 11
16.562442
 21
64.137432
 31
0.0
  0
LINE
  5
2477
100
AcDbEntity
  8
A-WALL-STUD
100
AcDbLine
 10
18.062442
 20
65.637432
 30
0.0
 11
21.562442
 21
65.637432
 31
0.0
  0
LINE
  5
2478
100
AcDbEntity
  8
A-WALL-STUD
100
AcDbLine
 10
18.062442
 20
65.637432
 30
0.0
 11
21.562442
 21
64.137432
 31
0.0
  0
LINE
  5
2479
100
AcDbEntity
  8
A-WALL-STUD
100
AcDbLine
 10
21.562442
 20
65.637432
 30
0.0
 11
18.062442
 21
64.137432
 31
0.0
  0
LINE
  5
2484
102
{ACAD_REACTORS
330
2762
102
}
100
AcDbEntity
  8
A-WALL-SHTH
100
AcDbLine
 10
-24.025737
 20
106.887432
 30
0.0
 11
-5.821497
 21
88.683192
 31
0.0
  0
POLYLINE
  5
2485
100
AcDbEntity
  8
A-HATCH
100
AcDb2dPolyline
 66
     1
 10
0.0
 20
0.0
 30
0.0
 75
     6
  0
VERTEX
  5
2486
100
AcDbEntity
  8
A-HATCH
100
AcDbVertex
100
AcDb2dVertex
 10
-22.904028
 20
105.765723
 30
0.0
  0
VERTEX
  5
2487
100
AcDbEntity
  8
A-HATCH
100
AcDbVertex
100
AcDb2dVertex
 10
-22.623308
 20
105.811786
 30
0.0
  0
VERTEX
  5
2488
100
AcDbEntity
  8
A-HATCH
100
AcDbVertex
100
AcDb2dVertex
 10
-22.197905
 20
105.894172
 30
0.0
  0
VERTEX
  5
2489
100
AcDbEntity
  8
A-HATCH
100
AcDbVertex
100
AcDb2dVertex
 10
-21.720069
 20
105.997538
 30
0.0
  0
VERTEX
  5
248A
100
AcDbEntity
  8
A-HATCH
100
AcDbVertex
100
AcDb2dVertex
 10
-21.178387
 20
106.123552
 30
0.0
  0
VERTEX
  5
248B
100
AcDbEntity
  8
A-HATCH
100
AcDbVertex
100
AcDb2dVertex
 10
-20.561441
 20
106.273881
 30
0.0
  0
VERTEX
  5
248C
100
AcDbEntity
  8
A-HATCH
100
AcDbVertex
100
AcDb2dVertex
 10
-19.857817
 20
106.450192
 30
0.0
  0
VERTEX
  5
248D
100
AcDbEntity
  8
A-HATCH
100
AcDbVertex
100
AcDb2dVertex
 10
-19.0561
 20
106.654153
 30
0.0
  0
VERTEX
  5
248E
100
AcDbEntity
  8
A-HATCH
100
AcDbVertex
100
AcDb2dVertex
 10
-18.144873
 20
106.887432
 30
0.0
  0
SEQEND
  5
248F
100
AcDbEntity
  8
A-HATCH
  0
POLYLINE
  5
2490
100
AcDbEntity
  8
A-HATCH
100
AcDb2dPolyline
 66
     1
 10
0.0
 20
0.0
 30
0.0
 75
     6
  0
VERTEX
  5
2491
100
AcDbEntity
  8
A-HATCH
100
AcDbVertex
100
AcDb2dVertex
 10
-14.8624
 20
106.209376
 30
0.0
  0
VERTEX
  5
2492
100
AcDbEntity
  8
A-HATCH
100
AcDbVertex
100
AcDb2dVertex
 10
-15.021325
 20
106.179076
 30
0.0
  0
VERTEX
  5
2493
100
AcDbEntity
  8
A-HATCH
100
AcDbVertex
100
AcDb2dVertex
 10
-15.214835
 20
106.141883
 30
0.0
  0
VERTEX
  5
2494
100
AcDbEntity
  8
A-HATCH
100
AcDbVertex
100
AcDb2dVertex
 10
-15.435308
 20
106.098941
 30
0.0
  0
VERTEX
  5
2495
100
AcDbEntity
  8
A-HATCH
100
AcDbVertex
100
AcDb2dVertex
 10
-15.675126
 20
106.05139
 30
0.0
  0
VERTEX
  5
2496
100
AcDbEntity
  8
A-HATCH
100
AcDbVertex
100
AcDb2dVertex
 10
-15.926669
 20
106.000371
 30
0.0
  0
VERTEX
  5
2497
100
AcDbEntity
  8
A-HATCH
100
AcDbVertex
100
AcDb2dVertex
 10
-16.182317
 20
105.947027
 30
0.0
  0
VERTEX
  5
2498
100
AcDbEntity
  8
A-HATCH
100
AcDbVertex
100
AcDb2dVertex
 10
-16.43445
 20
105.892498
 30
0.0
  0
VERTEX
  5
2499
100
AcDbEntity
  8
A-HATCH
100
AcDbVertex
100
AcDb2dVertex
 10
-16.675448
 20
105.837925
 30
0.0
  0
VERTEX
  5
249A
100
AcDbEntity
  8
A-HATCH
100
AcDbVertex
100
AcDb2dVertex
 10
-16.899375
 20
105.78454
 30
0.0
  0
VERTEX
  5
249B
100
AcDbEntity
  8
A-HATCH
100
AcDbVertex
100
AcDb2dVertex
 10
-17.107022
 20
105.733933
 30
0.0
  0
VERTEX
  5
249C
100
AcDbEntity
  8
A-HATCH
100
AcDbVertex
100
AcDb2dVertex
 10
-17.300863
 20
105.687782
 30
0.0
  0
VERTEX
  5
249D
100
AcDbEntity
  8
A-HATCH
100
AcDbVertex
100
AcDb2dVertex
 10
-17.483372
 20
105.647766
 30
0.0
  0
VERTEX
  5
249E
100
AcDbEntity
  8
A-HATCH
100
AcDbVertex
100
AcDb2dVertex
 10
-17.657023
 20
105.615565
 30
0.0
  0
VERTEX
  5
249F
100
AcDbEntity
  8
A-HATCH
100
AcDbVertex
100
AcDb2dVertex
 10
-17.824291
 20
105.592858
 30
0.0
  0
VERTEX
  5
24A0
100
AcDbEntity
  8
A-HATCH
100
AcDbVertex
100
AcDb2dVertex
 10
-17.987649
 20
105.581324
 30
0.0
  0
VERTEX
  5
24A1
100
AcDbEntity
  8
A-HATCH
100
AcDbVertex
100
AcDb2dVertex
 10
-18.149572
 20
105.582641
 30
0.0
  0
VERTEX
  5
24A2
100
AcDbEntity
  8
A-HATCH
100
AcDbVertex
100
AcDb2dVertex
 10
-18.31197
 20
105.597735
 30
0.0
  0
VERTEX
  5
24A3
100
AcDbEntity
  8
A-HATCH
100
AcDbVertex
100
AcDb2dVertex
 10
-18.474497
 20
105.624505
 30
0.0
  0
VERTEX
  5
24A4
100
AcDbEntity
  8
A-HATCH
100
AcDbVertex
100
AcDb2dVertex
 10
-18.636245
 20
105.660098
 30
0.0
  0
VERTEX
  5
24A5
100
AcDbEntity
  8
A-HATCH
100
AcDbVertex
100
AcDb2dVertex
 10
-18.796306
 20
105.701659
 30
0.0
  0
VERTEX
  5
24A6
100
AcDbEntity
  8
A-HATCH
100
AcDbVertex
100
AcDb2dVertex
 10
-18.95377
 20
105.746334
 30
0.0
  0
VERTEX
  5
24A7
100
AcDbEntity
  8
A-HATCH
100
AcDbVertex
100
AcDb2dVertex
 10
-19.107729
 20
105.791268
 30
0.0
  0
VERTEX
  5
24A8
100
AcDbEntity
  8
A-HATCH
100
AcDbVertex
100
AcDb2dVertex
 10
-19.257273
 20
105.833608
 30
0.0
  0
VERTEX
  5
24A9
100
AcDbEntity
  8
A-HATCH
100
AcDbVertex
100
AcDb2dVertex
 10
-19.401494
 20
105.870498
 30
0.0
  0
VERTEX
  5
24AA
100
AcDbEntity
  8
A-HATCH
100
AcDbVertex
100
AcDb2dVertex
 10
-19.539808
 20
105.899474
 30
0.0
  0
VERTEX
  5
24AB
100
AcDbEntity
  8
A-HATCH
100
AcDbVertex
100
AcDb2dVertex
 10
-19.672928
 20
105.919627
 30
0.0
  0
VERTEX
  5
24AC
100
AcDbEntity
  8
A-HATCH
100
AcDbVertex
100
AcDb2dVertex
 10
-19.801894
 20
105.930439
 30
0.0
  0
VERTEX
  5
24AD
100
AcDbEntity
  8
A-HATCH
100
AcDbVertex
100
AcDb2dVertex
 10
-19.927744
 20
105.931391
 30
0.0
  0
VERTEX
  5
24AE
100
AcDbEntity
  8
A-HATCH
100
AcDbVertex
100
AcDb2dVertex
 10
-20.051517
 20
105.921963
 30
0.0
  0
VERTEX
  5
24AF
100
AcDbEntity
  8
A-HATCH
100
AcDbVertex
100
AcDb2dVertex
 10
-20.174251
 20
105.901636
 30
0.0
  0
VERTEX
  5
24B0
100
AcDbEntity
  8
A-HATCH
100
AcDbVertex
100
AcDb2dVertex
 10
-20.296985
 20
105.869892
 30
0.0
  0
VERTEX
  5
24B1
100
AcDbEntity
  8
A-HATCH
100
AcDbVertex
100
AcDb2dVertex
 10
-20.420758
 20
105.826212
 30
0.0
  0
VERTEX
  5
24B2
100
AcDbEntity
  8
A-HATCH
100
AcDbVertex
100
AcDb2dVertex
 10
-20.546586
 20
105.770574
 30
0.0
  0
VERTEX
  5
24B3
100
AcDbEntity
  8
A-HATCH
100
AcDbVertex
100
AcDb2dVertex
 10
-20.675401
 20
105.704946
 30
0.0
  0
VERTEX
  5
24B4
100
AcDbEntity
  8
A-HATCH
100
AcDbVertex
100
AcDb2dVertex
 10
-20.80811
 20
105.631792
 30
0.0
  0
VERTEX
  5
24B5
100
AcDbEntity
  8
A-HATCH
100
AcDbVertex
100
AcDb2dVertex
 10
-20.945623
 20
105.553579
 30
0.0
  0
VERTEX
  5
24B6
100
AcDbEntity
  8
A-HATCH
100
AcDbVertex
100
AcDb2dVertex
 10
-21.088849
 20
105.472771
 30
0.0
  0
VERTEX
  5
24B7
100
AcDbEntity
  8
A-HATCH
100
AcDbVertex
100
AcDb2dVertex
 10
-21.238696
 20
105.391833
 30
0.0
  0
VERTEX
  5
24B8
100
AcDbEntity
  8
A-HATCH
100
AcDbVertex
100
AcDb2dVertex
 10
-21.396074
 20
105.31323
 30
0.0
  0
VERTEX
  5
24B9
100
AcDbEntity
  8
A-HATCH
100
AcDbVertex
100
AcDb2dVertex
 10
-21.56189
 20
105.239428
 30
0.0
  0
VERTEX
  5
24BA
100
AcDbEntity
  8
A-HATCH
100
AcDbVertex
100
AcDb2dVertex
 10
-21.736957
 20
105.172276
 30
0.0
  0
VERTEX
  5
24BB
100
AcDbEntity
  8
A-HATCH
100
AcDbVertex
100
AcDb2dVertex
 10
-21.921693
 20
105.11116
 30
0.0
  0
VERTEX
  5
24BC
100
AcDbEntity
  8
A-HATCH
100
AcDbVertex
100
AcDb2dVertex
 10
-22.11642
 20
105.05485
 30
0.0
  0
VERTEX
  5
24BD
100
AcDbEntity
  8
A-HATCH
100
AcDbVertex
100
AcDb2dVertex
 10
-22.177458
 20
105.039153
 30
0.0
  0
SEQEND
  5
24BE
100
AcDbEntity
  8
A-HATCH
  0
POLYLINE
  5
24BF
100
AcDbEntity
  8
A-HATCH
100
AcDb2dPolyline
 66
     1
 10
0.0
 20
0.0
 30
0.0
 75
     6
  0
VERTEX
  5
24C0
100
AcDbEntity
  8
A-HATCH
100
AcDbVertex
100
AcDb2dVertex
 10
-14.168824
 20
105.5158
 30
0.0
  0
VERTEX
  5
24C1
100
AcDbEntity
  8
A-HATCH
100
AcDbVertex
100
AcDb2dVertex
 10
-14.348726
 20
105.47889
 30
0.0
  0
VERTEX
  5
24C2
100
AcDbEntity
  8
A-HATCH
100
AcDbVertex
100
AcDb2dVertex
 10
-14.601098
 20
105.425806
 30
0.0
  0
VERTEX
  5
24C3
100
AcDbEntity
  8
A-HATCH
100
AcDbVertex
100
AcDb2dVertex
 10
-14.907532
 20
105.358904
 30
0.0
  0
VERTEX
  5
24C4
100
AcDbEntity
  8
A-HATCH
100
AcDbVertex
100
AcDb2dVertex
 10
-15.249617
 20
105.28054
 30
0.0
  0
VERTEX
  5
24C5
100
AcDbEntity
  8
A-HATCH
100
AcDbVertex
100
AcDb2dVertex
 10
-15.608943
 20
105.193068
 30
0.0
  0
VERTEX
  5
24C6
100
AcDbEntity
  8
A-HATCH
100
AcDbVertex
100
AcDb2dVertex
 10
-15.967099
 20
105.098844
 30
0.0
  0
VERTEX
  5
24C7
100
AcDbEntity
  8
A-HATCH
100
AcDbVertex
100
AcDb2dVertex
 10
-16.305675
 20
105.000223
 30
0.0
  0
VERTEX
  5
24C8
100
AcDbEntity
  8
A-HATCH
100
AcDbVertex
100
AcDb2dVertex
 10
-16.606262
 20
104.899561
 30
0.0
  0
VERTEX
  5
24C9
100
AcDbEntity
  8
A-HATCH
100
AcDbVertex
100
AcDb2dVertex
 10
-16.855016
 20
104.799052
 30
0.0
  0
VERTEX
  5
24CA
100
AcDbEntity
  8
A-HATCH
100
AcDbVertex
100
AcDb2dVertex
 10
-17.056368
 20
104.700244
 30
0.0
  0
VERTEX
  5
24CB
100
AcDbEntity
  8
A-HATCH
100
AcDbVertex
100
AcDb2dVertex
 10
-17.219316
 20
104.604526
 30
0.0
  0
VERTEX
  5
24CC
100
AcDbEntity
  8
A-HATCH
100
AcDbVertex
100
AcDb2dVertex
 10
-17.352855
 20
104.513285
 30
0.0
  0
VERTEX
  5
24CD
100
AcDbEntity
  8
A-HATCH
100
AcDbVertex
100
AcDb2dVertex
 10
-17.465985
 20
104.42791
 30
0.0
  0
VERTEX
  5
24CE
100
AcDbEntity
  8
A-HATCH
100
AcDbVertex
100
AcDb2dVertex
 10
-17.567702
 20
104.349789
 30
0.0
  0
VERTEX
  5
24CF
100
AcDbEntity
  8
A-HATCH
100
AcDbVertex
100
AcDb2dVertex
 10
-17.667003
 20
104.280309
 30
0.0
  0
VERTEX
  5
24D0
100
AcDbEntity
  8
A-HATCH
100
AcDbVertex
100
AcDb2dVertex
 10
-17.772887
 20
104.220858
 30
0.0
  0
VERTEX
  5
24D1
100
AcDbEntity
  8
A-HATCH
100
AcDbVertex
100
AcDb2dVertex
 10
-17.892441
 20
104.172572
 30
0.0
  0
VERTEX
  5
24D2
100
AcDbEntity
  8
A-HATCH
100
AcDbVertex
100
AcDb2dVertex
 10
-18.025107
 20
104.135574
 30
0.0
  0
VERTEX
  5
24D3
100
AcDbEntity
  8
A-HATCH
100
AcDbVertex
100
AcDb2dVertex
 10
-18.168419
 20
104.109734
 30
0.0
  0
VERTEX
  5
24D4
100
AcDbEntity
  8
A-HATCH
100
AcDbVertex
100
AcDb2dVertex
 10
-18.319911
 20
104.094921
 30
0.0
  0
VERTEX
  5
24D5
100
AcDbEntity
  8
A-HATCH
100
AcDbVertex
100
AcDb2dVertex
 10
-18.477115
 20
104.091007
 30
0.0
  0
VERTEX
  5
24D6
100
AcDbEntity
  8
A-HATCH
100
AcDbVertex
100
AcDb2dVertex
 10
-18.637565
 20
104.097862
 30
0.0
  0
VERTEX
  5
24D7
100
AcDbEntity
  8
A-HATCH
100
AcDbVertex
100
AcDb2dVertex
 10
-18.798795
 20
104.115356
 30
0.0
  0
VERTEX
  5
24D8
100
AcDbEntity
  8
A-HATCH
100
AcDbVertex
100
AcDb2dVertex
 10
-18.958336
 20
104.143359
 30
0.0
  0
VERTEX
  5
24D9
100
AcDbEntity
  8
A-HATCH
100
AcDbVertex
100
AcDb2dVertex
 10
-19.114285
 20
104.181265
 30
0.0
  0
VERTEX
  5
24DA
100
AcDbEntity
  8
A-HATCH
100
AcDbVertex
100
AcDb2dVertex
 10
-19.266989
 20
104.226567
 30
0.0
  0
VERTEX
  5
24DB
100
AcDbEntity
  8
A-HATCH
100
AcDbVertex
100
AcDb2dVertex
 10
-19.417355
 20
104.27628
 30
0.0
  0
VERTEX
  5
24DC
100
AcDbEntity
  8
A-HATCH
100
AcDbVertex
100
AcDb2dVertex
 10
-19.566293
 20
104.327421
 30
0.0
  0
VERTEX
  5
24DD
100
AcDbEntity
  8
A-HATCH
100
AcDbVertex
100
AcDb2dVertex
 10
-19.714713
 20
104.377004
 30
0.0
  0
VERTEX
  5
24DE
100
AcDbEntity
  8
A-HATCH
100
AcDbVertex
100
AcDb2dVertex
 10
-19.863521
 20
104.422047
 30
0.0
  0
VERTEX
  5
24DF
100
AcDbEntity
  8
A-HATCH
100
AcDbVertex
100
AcDb2dVertex
 10
-20.013628
 20
104.459564
 30
0.0
  0
VERTEX
  5
24E0
100
AcDbEntity
  8
A-HATCH
100
AcDbVertex
100
AcDb2dVertex
 10
-20.165942
 20
104.486572
 30
0.0
  0
VERTEX
  5
24E1
100
AcDbEntity
  8
A-HATCH
100
AcDbVertex
100
AcDb2dVertex
 10
-20.321112
 20
104.500866
 30
0.0
  0
VERTEX
  5
24E2
100
AcDbEntity
  8
A-HATCH
100
AcDbVertex
100
AcDb2dVertex
 10
-20.478749
 20
104.503352
 30
0.0
  0
VERTEX
  5
24E3
100
AcDbEntity
  8
A-HATCH
100
AcDbVertex
100
AcDb2dVertex
 10
-20.638204
 20
104.495719
 30
0.0
  0
VERTEX
  5
24E4
100
AcDbEntity
  8
A-HATCH
100
AcDbVertex
100
AcDb2dVertex
 10
-20.798827
 20
104.479653
 30
0.0
  0
VERTEX
  5
24E5
100
AcDbEntity
  8
A-HATCH
100
AcDbVertex
100
AcDb2dVertex
 10
-20.95997
 20
104.456839
 30
0.0
  0
VERTEX
  5
24E6
100
AcDbEntity
  8
A-HATCH
100
AcDbVertex
100
AcDb2dVertex
 10
-21.120982
 20
104.428966
 30
0.0
  0
VERTEX
  5
24E7
100
AcDbEntity
  8
A-HATCH
100
AcDbVertex
100
AcDb2dVertex
 10
-21.281216
 20
104.39772
 30
0.0
  0
VERTEX
  5
24E8
100
AcDbEntity
  8
A-HATCH
100
AcDbVertex
100
AcDb2dVertex
 10
-21.440022
 20
104.364787
 30
0.0
  0
VERTEX
  5
24E9
100
AcDbEntity
  8
A-HATCH
100
AcDbVertex
100
AcDb2dVertex
 10
-21.49212
 20
104.353815
 30
0.0
  0
SEQEND
  5
24EA
100
AcDbEntity
  8
A-HATCH
  0
POLYLINE
  5
24EB
100
AcDbEntity
  8
A-HATCH
100
AcDb2dPolyline
 66
     1
 10
0.0
 20
0.0
 30
0.0
 75
     6
  0
VERTEX
  5
24EC
100
AcDbEntity
  8
A-HATCH
100
AcDbVertex
100
AcDb2dVertex
 10
-11.109987
 20
102.456963
 30
0.0
  0
VERTEX
  5
24ED
100
AcDbEntity
  8
A-HATCH
100
AcDbVertex
100
AcDb2dVertex
 10
-11.890853
 20
102.210507
 30
0.0
  0
VERTEX
  5
24EE
100
AcDbEntity
  8
A-HATCH
100
AcDbVertex
100
AcDb2dVertex
 10
-12.296425
 20
102.11782
 30
0.0
  0
VERTEX
  5
24EF
100
AcDbEntity
  8
A-HATCH
100
AcDbVertex
100
AcDb2dVertex
 10
-12.66426
 20
102.066738
 30
0.0
  0
VERTEX
  5
24F0
100
AcDbEntity
  8
A-HATCH
100
AcDbVertex
100
AcDb2dVertex
 10
-12.99632
 20
102.051019
 30
0.0
  0
VERTEX
  5
24F1
100
AcDbEntity
  8
A-HATCH
100
AcDbVertex
100
AcDb2dVertex
 10
-13.294567
 20
102.064422
 30
0.0
  0
VERTEX
  5
24F2
100
AcDbEntity
  8
A-HATCH
100
AcDbVertex
100
AcDb2dVertex
 10
-13.560961
 20
102.100704
 30
0.0
  0
VERTEX
  5
24F3
100
AcDbEntity
  8
A-HATCH
100
AcDbVertex
100
AcDb2dVertex
 10
-13.797466
 20
102.153622
 30
0.0
  0
VERTEX
  5
24F4
100
AcDbEntity
  8
A-HATCH
100
AcDbVertex
100
AcDb2dVertex
 10
-14.006043
 20
102.216934
 30
0.0
  0
VERTEX
  5
24F5
100
AcDbEntity
  8
A-HATCH
100
AcDbVertex
100
AcDb2dVertex
 10
-14.189127
 20
102.285222
 30
0.0
  0
VERTEX
  5
24F6
100
AcDbEntity
  8
A-HATCH
100
AcDbVertex
100
AcDb2dVertex
 10
-14.351048
 20
102.356364
 30
0.0
  0
VERTEX
  5
24F7
100
AcDbEntity
  8
A-HATCH
100
AcDbVertex
100
AcDb2dVertex
 10
-14.496611
 20
102.429064
 30
0.0
  0
VERTEX
  5
24F8
100
AcDbEntity
  8
A-HATCH
100
AcDbVertex
100
AcDb2dVertex
 10
-14.630619
 20
102.502023
 30
0.0
  0
VERTEX
  5
24F9
100
AcDbEntity
  8
A-HATCH
100
AcDbVertex
100
AcDb2dVertex
 10
-14.757875
 20
102.573943
 30
0.0
  0
VERTEX
  5
24FA
100
AcDbEntity
  8
A-HATCH
100
AcDbVertex
100
AcDb2dVertex
 10
-14.883184
 20
102.643529
 30
0.0
  0
VERTEX
  5
24FB
100
AcDbEntity
  8
A-HATCH
100
AcDbVertex
100
AcDb2dVertex
 10
-15.01135
 20
102.709482
 30
0.0
  0
VERTEX
  5
24FC
100
AcDbEntity
  8
A-HATCH
100
AcDbVertex
100
AcDb2dVertex
 10
-15.147175
 20
102.770504
 30
0.0
  0
VERTEX
  5
24FD
100
AcDbEntity
  8
A-HATCH
100
AcDbVertex
100
AcDb2dVertex
 10
-15.294318
 20
102.825559
 30
0.0
  0
VERTEX
  5
24FE
100
AcDbEntity
  8
A-HATCH
100
AcDbVertex
100
AcDb2dVertex
 10
-15.451846
 20
102.874645
 30
0.0
  0
VERTEX
  5
24FF
100
AcDbEntity
  8
A-HATCH
100
AcDbVertex
100
AcDb2dVertex
 10
-15.617685
 20
102.918022
 30
0.0
  0
VERTEX
  5
2500
100
AcDbEntity
  8
A-HATCH
100
AcDbVertex
100
AcDb2dVertex
 10
-15.789755
 20
102.95595
 30
0.0
  0
VERTEX
  5
2501
100
AcDbEntity
  8
A-HATCH
100
AcDbVertex
100
AcDb2dVertex
 10
-15.965979
 20
102.988689
 30
0.0
  0
VERTEX
  5
2502
100
AcDbEntity
  8
A-HATCH
100
AcDbVertex
100
AcDb2dVertex
 10
-16.144281
 20
103.016497
 30
0.0
  0
VERTEX
  5
2503
100
AcDbEntity
  8
A-HATCH
100
AcDbVertex
100
AcDb2dVertex
 10
-16.322583
 20
103.039635
 30
0.0
  0
VERTEX
  5
2504
100
AcDbEntity
  8
A-HATCH
100
AcDbVertex
100
AcDb2dVertex
 10
-16.498808
 20
103.058361
 30
0.0
  0
VERTEX
  5
2505
100
AcDbEntity
  8
A-HATCH
100
AcDbVertex
100
AcDb2dVertex
 10
-16.67131
 20
103.072979
 30
0.0
  0
VERTEX
  5
2506
100
AcDbEntity
  8
A-HATCH
100
AcDbVertex
100
AcDb2dVertex
 10
-16.840178
 20
103.083963
 30
0.0
  0
VERTEX
  5
2507
100
AcDbEntity
  8
A-HATCH
100
AcDbVertex
100
AcDb2dVertex
 10
-17.00593
 20
103.091835
 30
0.0
  0
VERTEX
  5
2508
100
AcDbEntity
  8
A-HATCH
100
AcDbVertex
100
AcDb2dVertex
 10
-17.169085
 20
103.097111
 30
0.0
  0
VERTEX
  5
2509
100
AcDbEntity
  8
A-HATCH
100
AcDbVertex
100
AcDb2dVertex
 10
-17.330162
 20
103.100311
 30
0.0
  0
VERTEX
  5
250A
100
AcDbEntity
  8
A-HATCH
100
AcDbVertex
100
AcDb2dVertex
 10
-17.489682
 20
103.101954
 30
0.0
  0
VERTEX
  5
250B
100
AcDbEntity
  8
A-HATCH
100
AcDbVertex
100
AcDb2dVertex
 10
-17.648163
 20
103.10256
 30
0.0
  0
VERTEX
  5
250C
100
AcDbEntity
  8
A-HATCH
100
AcDbVertex
100
AcDb2dVertex
 10
-17.806124
 20
103.102646
 30
0.0
  0
VERTEX
  5
250D
100
AcDbEntity
  8
A-HATCH
100
AcDbVertex
100
AcDb2dVertex
 10
-17.964302
 20
103.102776
 30
0.0
  0
VERTEX
  5
250E
100
AcDbEntity
  8
A-HATCH
100
AcDbVertex
100
AcDb2dVertex
 10
-18.124298
 20
103.103684
 30
0.0
  0
VERTEX
  5
250F
100
AcDbEntity
  8
A-HATCH
100
AcDbVertex
100
AcDb2dVertex
 10
-18.287929
 20
103.10615
 30
0.0
  0
VERTEX
  5
2510
100
AcDbEntity
  8
A-HATCH
100
AcDbVertex
100
AcDb2dVertex
 10
-18.457013
 20
103.11095
 30
0.0
  0
VERTEX
  5
2511
100
AcDbEntity
  8
A-HATCH
100
AcDbVertex
100
AcDb2dVertex
 10
-18.633367
 20
103.118864
 30
0.0
  0
VERTEX
  5
2512
100
AcDbEntity
  8
A-HATCH
100
AcDbVertex
100
AcDb2dVertex
 10
-18.81881
 20
103.130671
 30
0.0
  0
VERTEX
  5
2513
100
AcDbEntity
  8
A-HATCH
100
AcDbVertex
100
AcDb2dVertex
 10
-19.015159
 20
103.147148
 30
0.0
  0
VERTEX
  5
2514
100
AcDbEntity
  8
A-HATCH
100
AcDbVertex
100
AcDb2dVertex
 10
-19.224231
 20
103.169075
 30
0.0
  0
VERTEX
  5
2515
100
AcDbEntity
  8
A-HATCH
100
AcDbVertex
100
AcDb2dVertex
 10
-19.447175
 20
103.19682
 30
0.0
  0
VERTEX
  5
2516
100
AcDbEntity
  8
A-HATCH
100
AcDbVertex
100
AcDb2dVertex
 10
-19.682467
 20
103.229117
 30
0.0
  0
VERTEX
  5
2517
100
AcDbEntity
  8
A-HATCH
100
AcDbVertex
100
AcDb2dVertex
 10
-19.927912
 20
103.264289
 30
0.0
  0
VERTEX
  5
2518
100
AcDbEntity
  8
A-HATCH
100
AcDbVertex
100
AcDb2dVertex
 10
-20.181316
 20
103.300661
 30
0.0
  0
VERTEX
  5
2519
100
AcDbEntity
  8
A-HATCH
100
AcDbVertex
100
AcDb2dVertex
 10
-20.440486
 20
103.336557
 30
0.0
  0
VERTEX
  5
251A
100
AcDbEntity
  8
A-HATCH
100
AcDbVertex
100
AcDb2dVertex
 10
-20.479928
 20
103.341623
 30
0.0
  0
SEQEND
  5
251B
100
AcDbEntity
  8
A-HATCH
  0
POLYLINE
  5
251C
100
AcDbEntity
  8
A-HATCH
100
AcDb2dPolyline
 66
     1
 10
0.0
 20
0.0
 30
0.0
 75
     6
  0
VERTEX
  5
251D
100
AcDbEntity
  8
A-HATCH
100
AcDbVertex
100
AcDb2dVertex
 10
-10.437818
 20
101.784794
 30
0.0
  0
VERTEX
  5
251E
100
AcDbEntity
  8
A-HATCH
100
AcDbVertex
100
AcDb2dVertex
 10
-11.428668
 20
101.61373
 30
0.0
  0
VERTEX
  5
251F
100
AcDbEntity
  8
A-HATCH
100
AcDbVertex
100
AcDb2dVertex
 10
-12.014883
 20
101.550247
 30
0.0
  0
VERTEX
  5
2520
100
AcDbEntity
  8
A-HATCH
100
AcDbVertex
100
AcDb2dVertex
 10
-12.570908
 20
101.524076
 30
0.0
  0
VERTEX
  5
2521
100
AcDbEntity
  8
A-HATCH
100
AcDbVertex
100
AcDb2dVertex
 10
-13.094677
 20
101.529949
 30
0.0
  0
VERTEX
  5
2522
100
AcDbEntity
  8
A-HATCH
100
AcDbVertex
100
AcDb2dVertex
 10
-13.584126
 20
101.562599
 30
0.0
  0
VERTEX
  5
2523
100
AcDbEntity
  8
A-HATCH
100
AcDbVertex
100
AcDb2dVertex
 10
-14.037187
 20
101.616759
 30
0.0
  0
VERTEX
  5
2524
100
AcDbEntity
  8
A-HATCH
100
AcDbVertex
100
AcDb2dVertex
 10
-14.451796
 20
101.687163
 30
0.0
  0
VERTEX
  5
2525
100
AcDbEntity
  8
A-HATCH
100
AcDbVertex
100
AcDb2dVertex
 10
-14.825886
 20
101.768542
 30
0.0
  0
VERTEX
  5
2526
100
AcDbEntity
  8
A-HATCH
100
AcDbVertex
100
AcDb2dVertex
 10
-15.158622
 20
101.856043
 30
0.0
  0
VERTEX
  5
2527
100
AcDbEntity
  8
A-HATCH
100
AcDbVertex
100
AcDb2dVertex
 10
-15.454097
 20
101.946463
 30
0.0
  0
VERTEX
  5
2528
100
AcDbEntity
  8
A-HATCH
100
AcDbVertex
100
AcDb2dVertex
 10
-15.717633
 20
102.037013
 30
0.0
  0
VERTEX
  5
2529
100
AcDbEntity
  8
A-HATCH
100
AcDbVertex
100
AcDb2dVertex
 10
-15.954554
 20
102.124903
 30
0.0
  0
VERTEX
  5
252A
100
AcDbEntity
  8
A-HATCH
100
AcDbVertex
100
AcDb2dVertex
 10
-16.170183
 20
102.207344
 30
0.0
  0
VERTEX
  5
252B
100
AcDbEntity
  8
A-HATCH
100
AcDbVertex
100
AcDb2dVertex
 10
-16.369842
 20
102.281546
 30
0.0
  0
VERTEX
  5
252C
100
AcDbEntity
  8
A-HATCH
100
AcDbVertex
100
AcDb2dVertex
 10
-16.558855
 20
102.34472
 30
0.0
  0
VERTEX
  5
252D
100
AcDbEntity
  8
A-HATCH
100
AcDbVertex
100
AcDb2dVertex
 10
-16.742545
 20
102.394076
 30
0.0
  0
VERTEX
  5
252E
100
AcDbEntity
  8
A-HATCH
100
AcDbVertex
100
AcDb2dVertex
 10
-16.925326
 20
102.427766
 30
0.0
  0
VERTEX
  5
252F
100
AcDbEntity
  8
A-HATCH
100
AcDbVertex
100
AcDb2dVertex
 10
-17.107977
 20
102.447703
 30
0.0
  0
VERTEX
  5
2530
100
AcDbEntity
  8
A-HATCH
100
AcDbVertex
100
AcDb2dVertex
 10
-17.290369
 20
102.456742
 30
0.0
  0
VERTEX
  5
2531
100
AcDbEntity
  8
A-HATCH
100
AcDbVertex
100
AcDb2dVertex
 10
-17.472371
 20
102.457737
 30
0.0
  0
VERTEX
  5
2532
100
AcDbEntity
  8
A-HATCH
100
AcDbVertex
100
AcDb2dVertex
 10
-17.653854
 20
102.453542
 30
0.0
  0
VERTEX
  5
2533
100
AcDbEntity
  8
A-HATCH
100
AcDbVertex
100
AcDb2dVertex
 10
-17.834687
 20
102.447011
 30
0.0
  0
VERTEX
  5
2534
100
AcDbEntity
  8
A-HATCH
100
AcDbVertex
100
AcDb2dVertex
 10
-18.014742
 20
102.441
 30
0.0
  0
VERTEX
  5
2535
100
AcDbEntity
  8
A-HATCH
100
AcDbVertex
100
AcDb2dVertex
 10
-18.193888
 20
102.438362
 30
0.0
  0
VERTEX
  5
2536
100
AcDbEntity
  8
A-HATCH
100
AcDbVertex
100
AcDb2dVertex
 10
-18.372383
 20
102.441343
 30
0.0
  0
VERTEX
  5
2537
100
AcDbEntity
  8
A-HATCH
100
AcDbVertex
100
AcDb2dVertex
 10
-18.552036
 20
102.449759
 30
0.0
  0
VERTEX
  5
2538
100
AcDbEntity
  8
A-HATCH
100
AcDbVertex
100
AcDb2dVertex
 10
-18.735044
 20
102.462815
 30
0.0
  0
VERTEX
  5
2539
100
AcDbEntity
  8
A-HATCH
100
AcDbVertex
100
AcDb2dVertex
 10
-18.923605
 20
102.479718
 30
0.0
  0
VERTEX
  5
253A
100
AcDbEntity
  8
A-HATCH
100
AcDbVertex
100
AcDb2dVertex
 10
-19.119914
 20
102.499673
 30
0.0
  0
VERTEX
  5
253B
100
AcDbEntity
  8
A-HATCH
100
AcDbVertex
100
AcDb2dVertex
 10
-19.326169
 20
102.521888
 30
0.0
  0
VERTEX
  5
253C
100
AcDbEntity
  8
A-HATCH
100
AcDbVertex
100
AcDb2dVertex
 10
-19.544567
 20
102.545569
 30
0.0
  0
VERTEX
  5
253D
100
AcDbEntity
  8
A-HATCH
100
AcDbVertex
100
AcDb2dVertex
 10
-19.700154
 20
102.561849
 30
0.0
  0
SEQEND
  5
253E
100
AcDbEntity
  8
A-HATCH
  0
POLYLINE
  5
253F
100
AcDbEntity
  8
A-HATCH
100
AcDb2dPolyline
 66
     1
 10
0.0
 20
0.0
 30
0.0
 75
     6
  0
VERTEX
  5
2540
100
AcDbEntity
  8
A-HATCH
100
AcDbVertex
100
AcDb2dVertex
 10
-10.10431
 20
101.451287
 30
0.0
  0
VERTEX
  5
2541
100
AcDbEntity
  8
A-HATCH
100
AcDbVertex
100
AcDb2dVertex
 10
-10.200607
 20
101.374436
 30
0.0
  0
VERTEX
  5
2542
100
AcDbEntity
  8
A-HATCH
100
AcDbVertex
100
AcDb2dVertex
 10
-10.306224
 20
101.29302
 30
0.0
  0
VERTEX
  5
2543
100
AcDbEntity
  8
A-HATCH
100
AcDbVertex
100
AcDb2dVertex
 10
-10.421716
 20
101.209512
 30
0.0
  0
VERTEX
  5
2544
100
AcDbEntity
  8
A-HATCH
100
AcDbVertex
100
AcDb2dVertex
 10
-10.547644
 20
101.126381
 30
0.0
  0
VERTEX
  5
2545
100
AcDbEntity
  8
A-HATCH
100
AcDbVertex
100
AcDb2dVertex
 10
-10.684564
 20
101.046101
 30
0.0
  0
VERTEX
  5
2546
100
AcDbEntity
  8
A-HATCH
100
AcDbVertex
100
AcDb2dVertex
 10
-10.833034
 20
100.971142
 30
0.0
  0
VERTEX
  5
2547
100
AcDbEntity
  8
A-HATCH
100
AcDbVertex
100
AcDb2dVertex
 10
-10.993613
 20
100.903976
 30
0.0
  0
VERTEX
  5
2548
100
AcDbEntity
  8
A-HATCH
100
AcDbVertex
100
AcDb2dVertex
 10
-11.166857
 20
100.847075
 30
0.0
  0
VERTEX
  5
2549
100
AcDbEntity
  8
A-HATCH
100
AcDbVertex
100
AcDb2dVertex
 10
-11.352719
 20
100.802385
 30
0.0
  0
VERTEX
  5
254A
100
AcDbEntity
  8
A-HATCH
100
AcDbVertex
100
AcDb2dVertex
 10
-11.548723
 20
100.769746
 30
0.0
  0
VERTEX
  5
254B
100
AcDbEntity
  8
A-HATCH
100
AcDbVertex
100
AcDb2dVertex
 10
-11.751788
 20
100.748477
 30
0.0
  0
VERTEX
  5
254C
100
AcDbEntity
  8
A-HATCH
100
AcDbVertex
100
AcDb2dVertex
 10
-11.958834
 20
100.737892
 30
0.0
  0
VERTEX
  5
254D
100
AcDbEntity
  8
A-HATCH
100
AcDbVertex
100
AcDb2dVertex
 10
-12.16678
 20
100.737308
 30
0.0
  0
VERTEX
  5
254E
100
AcDbEntity
  8
A-HATCH
100
AcDbVertex
100
AcDb2dVertex
 10
-12.372543
 20
100.74604
 30
0.0
  0
VERTEX
  5
254F
100
AcDbEntity
  8
A-HATCH
100
AcDbVertex
100
AcDb2dVertex
 10
-12.573044
 20
100.763407
 30
0.0
  0
VERTEX
  5
2550
100
AcDbEntity
  8
A-HATCH
100
AcDbVertex
100
AcDb2dVertex
 10
-12.7652
 20
100.788722
 30
0.0
  0
VERTEX
  5
2551
100
AcDbEntity
  8
A-HATCH
100
AcDbVertex
100
AcDb2dVertex
 10
-12.946726
 20
100.821115
 30
0.0
  0
VERTEX
  5
2552
100
AcDbEntity
  8
A-HATCH
100
AcDbVertex
100
AcDb2dVertex
 10
-13.118515
 20
100.858957
 30
0.0
  0
VERTEX
  5
2553
100
AcDbEntity
  8
A-HATCH
100
AcDbVertex
100
AcDb2dVertex
 10
-13.282254
 20
100.900431
 30
0.0
  0
VERTEX
  5
2554
100
AcDbEntity
  8
A-HATCH
100
AcDbVertex
100
AcDb2dVertex
 10
-13.439631
 20
100.943722
 30
0.0
  0
VERTEX
  5
2555
100
AcDbEntity
  8
A-HATCH
100
AcDbVertex
100
AcDb2dVertex
 10
-13.592335
 20
100.987013
 30
0.0
  0
VERTEX
  5
2556
100
AcDbEntity
  8
A-HATCH
100
AcDbVertex
100
AcDb2dVertex
 10
-13.742052
 20
101.028488
 30
0.0
  0
VERTEX
  5
2557
100
AcDbEntity
  8
A-HATCH
100
AcDbVertex
100
AcDb2dVertex
 10
-13.890471
 20
101.066329
 30
0.0
  0
VERTEX
  5
2558
100
AcDbEntity
  8
A-HATCH
100
AcDbVertex
100
AcDb2dVertex
 10
-14.03928
 20
101.098722
 30
0.0
  0
VERTEX
  5
2559
100
AcDbEntity
  8
A-HATCH
100
AcDbVertex
100
AcDb2dVertex
 10
-14.189517
 20
101.124303
 30
0.0
  0
VERTEX
  5
255A
100
AcDbEntity
  8
A-HATCH
100
AcDbVertex
100
AcDb2dVertex
 10
-14.339623
 20
101.143526
 30
0.0
  0
VERTEX
  5
255B
100
AcDbEntity
  8
A-HATCH
100
AcDbVertex
100
AcDb2dVertex
 10
-14.487393
 20
101.157301
 30
0.0
  0
VERTEX
  5
255C
100
AcDbEntity
  8
A-HATCH
100
AcDbVertex
100
AcDb2dVertex
 10
-14.630619
 20
101.166534
 30
0.0
  0
VERTEX
  5
255D
100
AcDbEntity
  8
A-HATCH
100
AcDbVertex
100
AcDb2dVertex
 10
-14.767094
 20
101.172135
 30
0.0
  0
VERTEX
  5
255E
100
AcDbEntity
  8
A-HATCH
100
AcDbVertex
100
AcDb2dVertex
 10
-14.89461
 20
101.175011
 30
0.0
  0
VERTEX
  5
255F
100
AcDbEntity
  8
A-HATCH
100
AcDbVertex
100
AcDb2dVertex
 10
-15.010961
 20
101.17607
 30
0.0
  0
VERTEX
  5
2560
100
AcDbEntity
  8
A-HATCH
100
AcDbVertex
100
AcDb2dVertex
 10
-15.113939
 20
101.176222
 30
0.0
  0
VERTEX
  5
2561
100
AcDbEntity
  8
A-HATCH
100
AcDbVertex
100
AcDb2dVertex
 10
-15.202311
 20
101.176481
 30
0.0
  0
VERTEX
  5
2562
100
AcDbEntity
  8
A-HATCH
100
AcDbVertex
100
AcDb2dVertex
 10
-15.278738
 20
101.178297
 30
0.0
  0
VERTEX
  5
2563
100
AcDbEntity
  8
A-HATCH
100
AcDbVertex
100
AcDb2dVertex
 10
-15.346856
 20
101.183228
 30
0.0
  0
VERTEX
  5
2564
100
AcDbEntity
  8
A-HATCH
100
AcDbVertex
100
AcDb2dVertex
 10
-15.410301
 20
101.192829
 30
0.0
  0
VERTEX
  5
2565
100
AcDbEntity
  8
A-HATCH
100
AcDbVertex
100
AcDb2dVertex
 10
-15.472706
 20
101.208657
 30
0.0
  0
VERTEX
  5
2566
100
AcDbEntity
  8
A-HATCH
100
AcDbVertex
100
AcDb2dVertex
 10
-15.537709
 20
101.232271
 30
0.0
  0
VERTEX
  5
2567
100
AcDbEntity
  8
A-HATCH
100
AcDbVertex
100
AcDb2dVertex
 10
-15.608943
 20
101.265225
 30
0.0
  0
VERTEX
  5
2568
100
AcDbEntity
  8
A-HATCH
100
AcDbVertex
100
AcDb2dVertex
 10
-15.690044
 20
101.309078
 30
0.0
  0
VERTEX
  5
2569
100
AcDbEntity
  8
A-HATCH
100
AcDbVertex
100
AcDb2dVertex
 10
-15.783934
 20
101.364608
 30
0.0
  0
VERTEX
  5
256A
100
AcDbEntity
  8
A-HATCH
100
AcDbVertex
100
AcDb2dVertex
 10
-15.890677
 20
101.42948
 30
0.0
  0
VERTEX
  5
256B
100
AcDbEntity
  8
A-HATCH
100
AcDbVertex
100
AcDb2dVertex
 10
-16.009624
 20
101.500579
 30
0.0
  0
VERTEX
  5
256C
100
AcDbEntity
  8
A-HATCH
100
AcDbVertex
100
AcDb2dVertex
 10
-16.140127
 20
101.574792
 30
0.0
  0
VERTEX
  5
256D
100
AcDbEntity
  8
A-HATCH
100
AcDbVertex
100
AcDb2dVertex
 10
-16.281535
 20
101.649005
 30
0.0
  0
VERTEX
  5
256E
100
AcDbEntity
  8
A-HATCH
100
AcDbVertex
100
AcDb2dVertex
 10
-16.4332
 20
101.720104
 30
0.0
  0
VERTEX
  5
256F
100
AcDbEntity
  8
A-HATCH
100
AcDbVertex
100
AcDb2dVertex
 10
-16.594472
 20
101.784976
 30
0.0
  0
VERTEX
  5
2570
100
AcDbEntity
  8
A-HATCH
100
AcDbVertex
100
AcDb2dVertex
 10
-16.764703
 20
101.840506
 30
0.0
  0
VERTEX
  5
2571
100
AcDbEntity
  8
A-HATCH
100
AcDbVertex
100
AcDb2dVertex
 10
-16.943259
 20
101.884212
 30
0.0
  0
VERTEX
  5
2572
100
AcDbEntity
  8
A-HATCH
100
AcDbVertex
100
AcDb2dVertex
 10
-17.129572
 20
101.916138
 30
0.0
  0
VERTEX
  5
2573
100
AcDbEntity
  8
A-HATCH
100
AcDbVertex
100
AcDb2dVertex
 10
-17.323091
 20
101.936959
 30
0.0
  0
VERTEX
  5
2574
100
AcDbEntity
  8
A-HATCH
100
AcDbVertex
100
AcDb2dVertex
 10
-17.523263
 20
101.947351
 30
0.0
  0
VERTEX
  5
2575
100
AcDbEntity
  8
A-HATCH
100
AcDbVertex
100
AcDb2dVertex
 10
-17.729537
 20
101.947987
 30
0.0
  0
VERTEX
  5
2576
100
AcDbEntity
  8
A-HATCH
100
AcDbVertex
100
AcDb2dVertex
 10
-17.941361
 20
101.939544
 30
0.0
  0
VERTEX
  5
2577
100
AcDbEntity
  8
A-HATCH
100
AcDbVertex
100
AcDb2dVertex
 10
-18.158182
 20
101.922697
 30
0.0
  0
VERTEX
  5
2578
100
AcDbEntity
  8
A-HATCH
100
AcDbVertex
100
AcDb2dVertex
 10
-18.379449
 20
101.898121
 30
0.0
  0
VERTEX
  5
2579
100
AcDbEntity
  8
A-HATCH
100
AcDbVertex
100
AcDb2dVertex
 10
-18.60457
 20
101.866538
 30
0.0
  0
VERTEX
  5
257A
100
AcDbEntity
  8
A-HATCH
100
AcDbVertex
100
AcDb2dVertex
 10
-18.832796
 20
101.828853
 30
0.0
  0
VERTEX
  5
257B
100
AcDbEntity
  8
A-HATCH
100
AcDbVertex
100
AcDb2dVertex
 10
-18.946106
 20
101.807801
 30
0.0
  0
SEQEND
  5
257C
100
AcDbEntity
  8
A-HATCH
  0
POLYLINE
  5
257D
100
AcDbEntity
  8
A-HATCH
100
AcDb2dPolyline
 66
     1
 10
0.0
 20
0.0
 30
0.0
 75
     6
  0
VERTEX
  5
257E
100
AcDbEntity
  8
A-HATCH
100
AcDbVertex
100
AcDb2dVertex
 10
-5.821497
 20
89.110305
 30
0.0
  0
VERTEX
  5
257F
100
AcDbEntity
  8
A-HATCH
100
AcDbVertex
100
AcDb2dVertex
 10
-6.043395
 20
89.220504
 30
0.0
  0
VERTEX
  5
2580
100
AcDbEntity
  8
A-HATCH
100
AcDbVertex
100
AcDb2dVertex
 10
-6.249207
 20
89.319108
 30
0.0
  0
VERTEX
  5
2581
100
AcDbEntity
  8
A-HATCH
100
AcDbVertex
100
AcDb2dVertex
 10
-6.443275
 20
89.404723
 30
0.0
  0
VERTEX
  5
2582
100
AcDbEntity
  8
A-HATCH
100
AcDbVertex
100
AcDb2dVertex
 10
-6.604584
 20
89.466279
 30
0.0
  0
SEQEND
  5
2583
100
AcDbEntity
  8
A-HATCH
  0
POLYLINE
  5
2584
100
AcDbEntity
  8
A-HATCH
100
AcDb2dPolyline
 66
     1
 10
0.0
 20
0.0
 30
0.0
 75
     6
  0
VERTEX
  5
2585
100
AcDbEntity
  8
A-HATCH
100
AcDbVertex
100
AcDb2dVertex
 10
-5.821497
 20
89.855602
 30
0.0
  0
VERTEX
  5
2586
100
AcDbEntity
  8
A-HATCH
100
AcDbVertex
100
AcDb2dVertex
 10
-6.053105
 20
89.940619
 30
0.0
  0
VERTEX
  5
2587
100
AcDbEntity
  8
A-HATCH
100
AcDbVertex
100
AcDb2dVertex
 10
-6.28326
 20
90.023811
 30
0.0
  0
VERTEX
  5
2588
100
AcDbEntity
  8
A-HATCH
100
AcDbVertex
100
AcDb2dVertex
 10
-6.509125
 20
90.102843
 30
0.0
  0
VERTEX
  5
2589
100
AcDbEntity
  8
A-HATCH
100
AcDbVertex
100
AcDb2dVertex
 10
-6.727866
 20
90.175382
 30
0.0
  0
VERTEX
  5
258A
100
AcDbEntity
  8
A-HATCH
100
AcDbVertex
100
AcDb2dVertex
 10
-6.936645
 20
90.239093
 30
0.0
  0
VERTEX
  5
258B
100
AcDbEntity
  8
A-HATCH
100
AcDbVertex
100
AcDb2dVertex
 10
-7.132627
 20
90.291643
 30
0.0
  0
VERTEX
  5
258C
100
AcDbEntity
  8
A-HATCH
100
AcDbVertex
100
AcDb2dVertex
 10
-7.312975
 20
90.330697
 30
0.0
  0
VERTEX
  5
258D
100
AcDbEntity
  8
A-HATCH
100
AcDbVertex
100
AcDb2dVertex
 10
-7.474853
 20
90.353922
 30
0.0
  0
VERTEX
  5
258E
100
AcDbEntity
  8
A-HATCH
100
AcDbVertex
100
AcDb2dVertex
 10
-7.492987
 20
90.354682
 30
0.0
  0
SEQEND
  5
258F
100
AcDbEntity
  8
A-HATCH
  0
POLYLINE
  5
2590
100
AcDbEntity
  8
A-HATCH
100
AcDb2dPolyline
 66
     1
 10
0.0
 20
0.0
 30
0.0
 75
     6
  0
VERTEX
  5
2591
100
AcDbEntity
  8
A-HATCH
100
AcDbVertex
100
AcDb2dVertex
 10
-8.299063
 20
91.160758
 30
0.0
  0
VERTEX
  5
2592
100
AcDbEntity
  8
A-HATCH
100
AcDbVertex
100
AcDb2dVertex
 10
-8.014312
 20
91.133108
 30
0.0
  0
VERTEX
  5
2593
100
AcDbEntity
  8
A-HATCH
100
AcDbVertex
100
AcDb2dVertex
 10
-7.68646
 20
91.084369
 30
0.0
  0
VERTEX
  5
2594
100
AcDbEntity
  8
A-HATCH
100
AcDbVertex
100
AcDb2dVertex
 10
-7.348032
 20
91.021243
 30
0.0
  0
VERTEX
  5
2595
100
AcDbEntity
  8
A-HATCH
100
AcDbVertex
100
AcDb2dVertex
 10
-7.008294
 20
90.948172
 30
0.0
  0
VERTEX
  5
2596
100
AcDbEntity
  8
A-HATCH
100
AcDbVertex
100
AcDb2dVertex
 10
-6.676507
 20
90.869596
 30
0.0
  0
VERTEX
  5
2597
100
AcDbEntity
  8
A-HATCH
100
AcDbVertex
100
AcDb2dVertex
 10
-6.361936
 20
90.789958
 30
0.0
  0
VERTEX
  5
2598
100
AcDbEntity
  8
A-HATCH
100
AcDbVertex
100
AcDb2dVertex
 10
-6.073845
 20
90.713699
 30
0.0
  0
VERTEX
  5
2599
100
AcDbEntity
  8
A-HATCH
100
AcDbVertex
100
AcDb2dVertex
 10
-5.821497
 20
90.645262
 30
0.0
  0
SEQEND
  5
259A
100
AcDbEntity
  8
A-HATCH
  0
POLYLINE
  5
259B
100
AcDbEntity
  8
A-HATCH
100
AcDb2dPolyline
 66
     1
 10
0.0
 20
0.0
 30
0.0
 75
     6
  0
VERTEX
  5
259C
100
AcDbEntity
  8
A-HATCH
100
AcDbVertex
100
AcDb2dVertex
 10
-8.309928
 20
99.656905
 30
0.0
  0
VERTEX
  5
259D
100
AcDbEntity
  8
A-HATCH
100
AcDbVertex
100
AcDb2dVertex
 10
-8.479117
 20
99.644373
 30
0.0
  0
VERTEX
  5
259E
100
AcDbEntity
  8
A-HATCH
100
AcDbVertex
100
AcDb2dVertex
 10
-8.674046
 20
99.629577
 30
0.0
  0
VERTEX
  5
259F
100
AcDbEntity
  8
A-HATCH
100
AcDbVertex
100
AcDb2dVertex
 10
-8.888367
 20
99.612621
 30
0.0
  0
VERTEX
  5
25A0
100
AcDbEntity
  8
A-HATCH
100
AcDbVertex
100
AcDb2dVertex
 10
-9.11573
 20
99.593605
 30
0.0
  0
VERTEX
  5
25A1
100
AcDbEntity
  8
A-HATCH
100
AcDbVertex
100
AcDb2dVertex
 10
-9.349788
 20
99.572633
 30
0.0
  0
VERTEX
  5
25A2
100
AcDbEntity
  8
A-HATCH
100
AcDbVertex
100
AcDb2dVertex
 10
-9.584191
 20
99.549806
 30
0.0
  0
VERTEX
  5
25A3
100
AcDbEntity
  8
A-HATCH
100
AcDbVertex
100
AcDb2dVertex
 10
-9.81259
 20
99.525226
 30
0.0
  0
VERTEX
  5
25A4
100
AcDbEntity
  8
A-HATCH
100
AcDbVertex
100
AcDb2dVertex
 10
-10.028636
 20
99.498996
 30
0.0
  0
VERTEX
  5
25A5
100
AcDbEntity
  8
A-HATCH
100
AcDbVertex
100
AcDb2dVertex
 10
-10.227255
 20
99.471319
 30
0.0
  0
VERTEX
  5
25A6
100
AcDbEntity
  8
A-HATCH
100
AcDbVertex
100
AcDb2dVertex
 10
-10.408472
 20
99.442807
 30
0.0
  0
VERTEX
  5
25A7
100
AcDbEntity
  8
A-HATCH
100
AcDbVertex
100
AcDb2dVertex
 10
-10.573586
 20
99.414171
 30
0.0
  0
VERTEX
  5
25A8
100
AcDbEntity
  8
A-HATCH
100
AcDbVertex
100
AcDb2dVertex
 10
-10.723895
 20
99.386125
 30
0.0
  0
VERTEX
  5
25A9
100
AcDbEntity
  8
A-HATCH
100
AcDbVertex
100
AcDb2dVertex
 10
-10.860698
 20
99.359381
 30
0.0
  0
VERTEX
  5
25AA
100
AcDbEntity
  8
A-HATCH
100
AcDbVertex
100
AcDb2dVertex
 10
-10.985296
 20
99.33465
 30
0.0
  0
VERTEX
  5
25AB
100
AcDbEntity
  8
A-HATCH
100
AcDbVertex
100
AcDb2dVertex
 10
-11.098986
 20
99.312647
 30
0.0
  0
VERTEX
  5
25AC
100
AcDbEntity
  8
A-HATCH
100
AcDbVertex
100
AcDb2dVertex
 10
-11.203067
 20
99.294083
 30
0.0
  0
VERTEX
  5
25AD
100
AcDbEntity
  8
A-HATCH
100
AcDbVertex
100
AcDb2dVertex
 10
-11.298948
 20
99.279465
 30
0.0
  0
VERTEX
  5
25AE
100
AcDbEntity
  8
A-HATCH
100
AcDbVertex
100
AcDb2dVertex
 10
-11.388467
 20
99.26848
 30
0.0
  0
VERTEX
  5
25AF
100
AcDbEntity
  8
A-HATCH
100
AcDbVertex
100
AcDb2dVertex
 10
-11.473571
 20
99.260609
 30
0.0
  0
VERTEX
  5
25B0
100
AcDbEntity
  8
A-HATCH
100
AcDbVertex
100
AcDb2dVertex
 10
-11.556209
 20
99.255333
 30
0.0
  0
VERTEX
  5
25B1
100
AcDbEntity
  8
A-HATCH
100
AcDbVertex
100
AcDb2dVertex
 10
-11.638327
 20
99.252132
 30
0.0
  0
VERTEX
  5
25B2
100
AcDbEntity
  8
A-HATCH
100
AcDbVertex
100
AcDb2dVertex
 10
-11.721874
 20
99.250489
 30
0.0
  0
VERTEX
  5
25B3
100
AcDbEntity
  8
A-HATCH
100
AcDbVertex
100
AcDb2dVertex
 10
-11.808796
 20
99.249883
 30
0.0
  0
VERTEX
  5
25B4
100
AcDbEntity
  8
A-HATCH
100
AcDbVertex
100
AcDb2dVertex
 10
-11.901041
 20
99.249797
 30
0.0
  0
VERTEX
  5
25B5
100
AcDbEntity
  8
A-HATCH
100
AcDbVertex
100
AcDb2dVertex
 10
-12.000146
 20
99.24984
 30
0.0
  0
VERTEX
  5
25B6
100
AcDbEntity
  8
A-HATCH
100
AcDbVertex
100
AcDb2dVertex
 10
-12.106002
 20
99.250143
 30
0.0
  0
VERTEX
  5
25B7
100
AcDbEntity
  8
A-HATCH
100
AcDbVertex
100
AcDb2dVertex
 10
-12.21809
 20
99.250965
 30
0.0
  0
VERTEX
  5
25B8
100
AcDbEntity
  8
A-HATCH
100
AcDbVertex
100
AcDb2dVertex
 10
-12.33589
 20
99.252565
 30
0.0
  0
VERTEX
  5
25B9
100
AcDbEntity
  8
A-HATCH
100
AcDbVertex
100
AcDb2dVertex
 10
-12.458884
 20
99.255203
 30
0.0
  0
VERTEX
  5
25BA
100
AcDbEntity
  8
A-HATCH
100
AcDbVertex
100
AcDb2dVertex
 10
-12.586552
 20
99.259138
 30
0.0
  0
VERTEX
  5
25BB
100
AcDbEntity
  8
A-HATCH
100
AcDbVertex
100
AcDb2dVertex
 10
-12.718374
 20
99.264631
 30
0.0
  0
VERTEX
  5
25BC
100
AcDbEntity
  8
A-HATCH
100
AcDbVertex
100
AcDb2dVertex
 10
-12.853832
 20
99.27194
 30
0.0
  0
VERTEX
  5
25BD
100
AcDbEntity
  8
A-HATCH
100
AcDbVertex
100
AcDb2dVertex
 10
-12.992362
 20
99.28126
 30
0.0
  0
VERTEX
  5
25BE
100
AcDbEntity
  8
A-HATCH
100
AcDbVertex
100
AcDb2dVertex
 10
-13.133229
 20
99.292526
 30
0.0
  0
VERTEX
  5
25BF
100
AcDbEntity
  8
A-HATCH
100
AcDbVertex
100
AcDb2dVertex
 10
-13.275654
 20
99.305608
 30
0.0
  0
VERTEX
  5
25C0
100
AcDbEntity
  8
A-HATCH
100
AcDbVertex
100
AcDb2dVertex
 10
-13.418858
 20
99.320377
 30
0.0
  0
VERTEX
  5
25C1
100
AcDbEntity
  8
A-HATCH
100
AcDbVertex
100
AcDb2dVertex
 10
-13.562062
 20
99.336703
 30
0.0
  0
VERTEX
  5
25C2
100
AcDbEntity
  8
A-HATCH
100
AcDbVertex
100
AcDb2dVertex
 10
-13.704488
 20
99.354456
 30
0.0
  0
VERTEX
  5
25C3
100
AcDbEntity
  8
A-HATCH
100
AcDbVertex
100
AcDb2dVertex
 10
-13.845355
 20
99.373507
 30
0.0
  0
VERTEX
  5
25C4
100
AcDbEntity
  8
A-HATCH
100
AcDbVertex
100
AcDb2dVertex
 10
-13.983885
 20
99.393725
 30
0.0
  0
VERTEX
  5
25C5
100
AcDbEntity
  8
A-HATCH
100
AcDbVertex
100
AcDb2dVertex
 10
-14.120083
 20
99.414938
 30
0.0
  0
VERTEX
  5
25C6
100
AcDbEntity
  8
A-HATCH
100
AcDbVertex
100
AcDb2dVertex
 10
-14.257091
 20
99.436797
 30
0.0
  0
VERTEX
  5
25C7
100
AcDbEntity
  8
A-HATCH
100
AcDbVertex
100
AcDb2dVertex
 10
-14.398835
 20
99.45891
 30
0.0
  0
VERTEX
  5
25C8
100
AcDbEntity
  8
A-HATCH
100
AcDbVertex
100
AcDb2dVertex
 10
-14.549239
 20
99.480887
 30
0.0
  0
VERTEX
  5
25C9
100
AcDbEntity
  8
A-HATCH
100
AcDbVertex
100
AcDb2dVertex
 10
-14.71223
 20
99.502335
 30
0.0
  0
VERTEX
  5
25CA
100
AcDbEntity
  8
A-HATCH
100
AcDbVertex
100
AcDb2dVertex
 10
-14.891732
 20
99.522863
 30
0.0
  0
VERTEX
  5
25CB
100
AcDbEntity
  8
A-HATCH
100
AcDbVertex
100
AcDb2dVertex
 10
-15.091673
 20
99.542079
 30
0.0
  0
VERTEX
  5
25CC
100
AcDbEntity
  8
A-HATCH
100
AcDbVertex
100
AcDb2dVertex
 10
-15.315977
 20
99.559592
 30
0.0
  0
VERTEX
  5
25CD
100
AcDbEntity
  8
A-HATCH
100
AcDbVertex
100
AcDb2dVertex
 10
-15.567196
 20
99.575116
 30
0.0
  0
VERTEX
  5
25CE
100
AcDbEntity
  8
A-HATCH
100
AcDbVertex
100
AcDb2dVertex
 10
-15.842381
 20
99.588789
 30
0.0
  0
VERTEX
  5
25CF
100
AcDbEntity
  8
A-HATCH
100
AcDbVertex
100
AcDb2dVertex
 10
-16.137211
 20
99.600853
 30
0.0
  0
VERTEX
  5
25D0
100
AcDbEntity
  8
A-HATCH
100
AcDbVertex
100
AcDb2dVertex
 10
-16.447363
 20
99.611554
 30
0.0
  0
VERTEX
  5
25D1
100
AcDbEntity
  8
A-HATCH
100
AcDbVertex
100
AcDb2dVertex
 10
-16.75916
 20
99.620855
 30
0.0
  0
SEQEND
  5
25D2
100
AcDbEntity
  8
A-HATCH
  0
POLYLINE
  5
25D3
100
AcDbEntity
  8
A-HATCH
100
AcDb2dPolyline
 66
     1
 10
0.0
 20
0.0
 30
0.0
 75
     6
  0
VERTEX
  5
25D4
100
AcDbEntity
  8
A-HATCH
100
AcDbVertex
100
AcDb2dVertex
 10
-9.160925
 20
100.507901
 30
0.0
  0
VERTEX
  5
25D5
100
AcDbEntity
  8
A-HATCH
100
AcDbVertex
100
AcDb2dVertex
 10
-9.327306
 20
100.469078
 30
0.0
  0
VERTEX
  5
25D6
100
AcDbEntity
  8
A-HATCH
100
AcDbVertex
100
AcDb2dVertex
 10
-9.550844
 20
100.41824
 30
0.0
  0
VERTEX
  5
25D7
100
AcDbEntity
  8
A-HATCH
100
AcDbVertex
100
AcDb2dVertex
 10
-9.820404
 20
100.359403
 30
0.0
  0
VERTEX
  5
25D8
100
AcDbEntity
  8
A-HATCH
100
AcDbVertex
100
AcDb2dVertex
 10
-10.124851
 20
100.296586
 30
0.0
  0
VERTEX
  5
25D9
100
AcDbEntity
  8
A-HATCH
100
AcDbVertex
100
AcDb2dVertex
 10
-10.453052
 20
100.233804
 30
0.0
  0
VERTEX
  5
25DA
100
AcDbEntity
  8
A-HATCH
100
AcDbVertex
100
AcDb2dVertex
 10
-10.79387
 20
100.175074
 30
0.0
  0
VERTEX
  5
25DB
100
AcDbEntity
  8
A-HATCH
100
AcDbVertex
100
AcDb2dVertex
 10
-11.136171
 20
100.124413
 30
0.0
  0
VERTEX
  5
25DC
100
AcDbEntity
  8
A-HATCH
100
AcDbVertex
100
AcDb2dVertex
 10
-11.468821
 20
100.085837
 30
0.0
  0
VERTEX
  5
25DD
100
AcDbEntity
  8
A-HATCH
100
AcDbVertex
100
AcDb2dVertex
 10
-11.7828
 20
100.06238
 30
0.0
  0
VERTEX
  5
25DE
100
AcDbEntity
  8
A-HATCH
100
AcDbVertex
100
AcDb2dVertex
 10
-12.077553
 20
100.053142
 30
0.0
  0
VERTEX
  5
25DF
100
AcDbEntity
  8
A-HATCH
100
AcDbVertex
100
AcDb2dVertex
 10
-12.354638
 20
100.05624
 30
0.0
  0
VERTEX
  5
25E0
100
AcDbEntity
  8
A-HATCH
100
AcDbVertex
100
AcDb2dVertex
 10
-12.615616
 20
100.069792
 30
0.0
  0
VERTEX
  5
25E1
100
AcDbEntity
  8
A-HATCH
100
AcDbVertex
100
AcDb2dVertex
 10
-12.862047
 20
100.091913
 30
0.0
  0
VERTEX
  5
25E2
100
AcDbEntity
  8
A-HATCH
100
AcDbVertex
100
AcDb2dVertex
 10
-13.095489
 20
100.120721
 30
0.0
  0
VERTEX
  5
25E3
100
AcDbEntity
  8
A-HATCH
100
AcDbVertex
100
AcDb2dVertex
 10
-13.317503
 20
100.154333
 30
0.0
  0
VERTEX
  5
25E4
100
AcDbEntity
  8
A-HATCH
100
AcDbVertex
100
AcDb2dVertex
 10
-13.529648
 20
100.190866
 30
0.0
  0
VERTEX
  5
25E5
100
AcDbEntity
  8
A-HATCH
100
AcDbVertex
100
AcDb2dVertex
 10
-13.733332
 20
100.228492
 30
0.0
  0
VERTEX
  5
25E6
100
AcDbEntity
  8
A-HATCH
100
AcDbVertex
100
AcDb2dVertex
 10
-13.929356
 20
100.265598
 30
0.0
  0
VERTEX
  5
25E7
100
AcDbEntity
  8
A-HATCH
100
AcDbVertex
100
AcDb2dVertex
 10
-14.118369
 20
100.300629
 30
0.0
  0
VERTEX
  5
25E8
100
AcDbEntity
  8
A-HATCH
100
AcDbVertex
100
AcDb2dVertex
 10
-14.30102
 20
100.332027
 30
0.0
  0
VERTEX
  5
25E9
100
AcDbEntity
  8
A-HATCH
100
AcDbVertex
100
AcDb2dVertex
 10
-14.477959
 20
100.358235
 30
0.0
  0
VERTEX
  5
25EA
100
AcDbEntity
  8
A-HATCH
100
AcDbVertex
100
AcDb2dVertex
 10
-14.649834
 20
100.377696
 30
0.0
  0
VERTEX
  5
25EB
100
AcDbEntity
  8
A-HATCH
100
AcDbVertex
100
AcDb2dVertex
 10
-14.817295
 20
100.388854
 30
0.0
  0
VERTEX
  5
25EC
100
AcDbEntity
  8
A-HATCH
100
AcDbVertex
100
AcDb2dVertex
 10
-14.980991
 20
100.390152
 30
0.0
  0
VERTEX
  5
25ED
100
AcDbEntity
  8
A-HATCH
100
AcDbVertex
100
AcDb2dVertex
 10
-15.141753
 20
100.380653
 30
0.0
  0
VERTEX
  5
25EE
100
AcDbEntity
  8
A-HATCH
100
AcDbVertex
100
AcDb2dVertex
 10
-15.301141
 20
100.36191
 30
0.0
  0
VERTEX
  5
25EF
100
AcDbEntity
  8
A-HATCH
100
AcDbVertex
100
AcDb2dVertex
 10
-15.460897
 20
100.336093
 30
0.0
  0
VERTEX
  5
25F0
100
AcDbEntity
  8
A-HATCH
100
AcDbVertex
100
AcDb2dVertex
 10
-15.622763
 20
100.305375
 30
0.0
  0
VERTEX
  5
25F1
100
AcDbEntity
  8
A-HATCH
100
AcDbVertex
100
AcDb2dVertex
 10
-15.788481
 20
100.271929
 30
0.0
  0
VERTEX
  5
25F2
100
AcDbEntity
  8
A-HATCH
100
AcDbVertex
100
AcDb2dVertex
 10
-15.959793
 20
100.237926
 30
0.0
  0
VERTEX
  5
25F3
100
AcDbEntity
  8
A-HATCH
100
AcDbVertex
100
AcDb2dVertex
 10
-16.138441
 20
100.205539
 30
0.0
  0
VERTEX
  5
25F4
100
AcDbEntity
  8
A-HATCH
100
AcDbVertex
100
AcDb2dVertex
 10
-16.326167
 20
100.17694
 30
0.0
  0
VERTEX
  5
25F5
100
AcDbEntity
  8
A-HATCH
100
AcDbVertex
100
AcDb2dVertex
 10
-16.524598
 20
100.15381
 30
0.0
  0
VERTEX
  5
25F6
100
AcDbEntity
  8
A-HATCH
100
AcDbVertex
100
AcDb2dVertex
 10
-16.734908
 20
100.135874
 30
0.0
  0
VERTEX
  5
25F7
100
AcDbEntity
  8
A-HATCH
100
AcDbVertex
100
AcDb2dVertex
 10
-16.958153
 20
100.122364
 30
0.0
  0
VERTEX
  5
25F8
100
AcDbEntity
  8
A-HATCH
100
AcDbVertex
100
AcDb2dVertex
 10
-17.195393
 20
100.112514
 30
0.0
  0
VERTEX
  5
25F9
100
AcDbEntity
  8
A-HATCH
100
AcDbVertex
100
AcDb2dVertex
 10
-17.249331
 20
100.111026
 30
0.0
  0
SEQEND
  5
25FA
100
AcDbEntity
  8
A-HATCH
  0
POLYLINE
  5
25FB
100
AcDbEntity
  8
A-HATCH
100
AcDb2dPolyline
 66
     1
 10
0.0
 20
0.0
 30
0.0
 75
     6
  0
VERTEX
  5
25FC
100
AcDbEntity
  8
A-HATCH
100
AcDbVertex
100
AcDb2dVertex
 10
-6.626762
 20
97.973739
 30
0.0
  0
VERTEX
  5
25FD
100
AcDbEntity
  8
A-HATCH
100
AcDbVertex
100
AcDb2dVertex
 10
-6.861657
 20
98.044563
 30
0.0
  0
VERTEX
  5
25FE
100
AcDbEntity
  8
A-HATCH
100
AcDbVertex
100
AcDb2dVertex
 10
-7.091468
 20
98.113356
 30
0.0
  0
VERTEX
  5
25FF
100
AcDbEntity
  8
A-HATCH
100
AcDbVertex
100
AcDb2dVertex
 10
-7.315366
 20
98.179368
 30
0.0
  0
VERTEX
  5
2600
100
AcDbEntity
  8
A-HATCH
100
AcDbVertex
100
AcDb2dVertex
 10
-7.532519
 20
98.241853
 30
0.0
  0
VERTEX
  5
2601
100
AcDbEntity
  8
A-HATCH
100
AcDbVertex
100
AcDb2dVertex
 10
-7.742095
 20
98.300061
 30
0.0
  0
VERTEX
  5
2602
100
AcDbEntity
  8
A-HATCH
100
AcDbVertex
100
AcDb2dVertex
 10
-7.943264
 20
98.353245
 30
0.0
  0
VERTEX
  5
2603
100
AcDbEntity
  8
A-HATCH
100
AcDbVertex
100
AcDb2dVertex
 10
-8.135195
 20
98.400656
 30
0.0
  0
VERTEX
  5
2604
100
AcDbEntity
  8
A-HATCH
100
AcDbVertex
100
AcDb2dVertex
 10
-8.317056
 20
98.441546
 30
0.0
  0
VERTEX
  5
2605
100
AcDbEntity
  8
A-HATCH
100
AcDbVertex
100
AcDb2dVertex
 10
-8.488318
 20
98.475205
 30
0.0
  0
VERTEX
  5
2606
100
AcDbEntity
  8
A-HATCH
100
AcDbVertex
100
AcDb2dVertex
 10
-8.649652
 20
98.501077
 30
0.0
  0
VERTEX
  5
2607
100
AcDbEntity
  8
A-HATCH
100
AcDbVertex
100
AcDb2dVertex
 10
-8.802032
 20
98.518642
 30
0.0
  0
VERTEX
  5
2608
100
AcDbEntity
  8
A-HATCH
100
AcDbVertex
100
AcDb2dVertex
 10
-8.94643
 20
98.527383
 30
0.0
  0
VERTEX
  5
2609
100
AcDbEntity
  8
A-HATCH
100
AcDbVertex
100
AcDb2dVertex
 10
-9.08382
 20
98.52678
 30
0.0
  0
VERTEX
  5
260A
100
AcDbEntity
  8
A-HATCH
100
AcDbVertex
100
AcDb2dVertex
 10
-9.215175
 20
98.516316
 30
0.0
  0
VERTEX
  5
260B
100
AcDbEntity
  8
A-HATCH
100
AcDbVertex
100
AcDb2dVertex
 10
-9.341468
 20
98.495471
 30
0.0
  0
VERTEX
  5
260C
100
AcDbEntity
  8
A-HATCH
100
AcDbVertex
100
AcDb2dVertex
 10
-9.463672
 20
98.463727
 30
0.0
  0
VERTEX
  5
260D
100
AcDbEntity
  8
A-HATCH
100
AcDbVertex
100
AcDb2dVertex
 10
-9.582705
 20
98.421106
 30
0.0
  0
VERTEX
  5
260E
100
AcDbEntity
  8
A-HATCH
100
AcDbVertex
100
AcDb2dVertex
 10
-9.699272
 20
98.369793
 30
0.0
  0
VERTEX
  5
260F
100
AcDbEntity
  8
A-HATCH
100
AcDbVertex
100
AcDb2dVertex
 10
-9.814022
 20
98.312511
 30
0.0
  0
VERTEX
  5
2610
100
AcDbEntity
  8
A-HATCH
100
AcDbVertex
100
AcDb2dVertex
 10
-9.927603
 20
98.251986
 30
0.0
  0
VERTEX
  5
2611
100
AcDbEntity
  8
A-HATCH
100
AcDbVertex
100
AcDb2dVertex
 10
-10.040664
 20
98.190942
 30
0.0
  0
VERTEX
  5
2612
100
AcDbEntity
  8
A-HATCH
100
AcDbVertex
100
AcDb2dVertex
 10
-10.153856
 20
98.132104
 30
0.0
  0
VERTEX
  5
2613
100
AcDbEntity
  8
A-HATCH
100
AcDbVertex
100
AcDb2dVertex
 10
-10.267826
 20
98.078196
 30
0.0
  0
VERTEX
  5
2614
100
AcDbEntity
  8
A-HATCH
100
AcDbVertex
100
AcDb2dVertex
 10
-10.383225
 20
98.031942
 30
0.0
  0
VERTEX
  5
2615
100
AcDbEntity
  8
A-HATCH
100
AcDbVertex
100
AcDb2dVertex
 10
-10.500571
 20
97.995506
 30
0.0
  0
VERTEX
  5
2616
100
AcDbEntity
  8
A-HATCH
100
AcDbVertex
100
AcDb2dVertex
 10
-10.619864
 20
97.968801
 30
0.0
  0
VERTEX
  5
2617
100
AcDbEntity
  8
A-HATCH
100
AcDbVertex
100
AcDb2dVertex
 10
-10.740975
 20
97.951177
 30
0.0
  0
VERTEX
  5
2618
100
AcDbEntity
  8
A-HATCH
100
AcDbVertex
100
AcDb2dVertex
 10
-10.863774
 20
97.941987
 30
0.0
  0
VERTEX
  5
2619
100
AcDbEntity
  8
A-HATCH
100
AcDbVertex
100
AcDb2dVertex
 10
-10.988131
 20
97.940581
 30
0.0
  0
VERTEX
  5
261A
100
AcDbEntity
  8
A-HATCH
100
AcDbVertex
100
AcDb2dVertex
 10
-11.113916
 20
97.946312
 30
0.0
  0
VERTEX
  5
261B
100
AcDbEntity
  8
A-HATCH
100
AcDbVertex
100
AcDb2dVertex
 10
-11.241
 20
97.958529
 30
0.0
  0
VERTEX
  5
261C
100
AcDbEntity
  8
A-HATCH
100
AcDbVertex
100
AcDb2dVertex
 10
-11.369252
 20
97.976585
 30
0.0
  0
VERTEX
  5
261D
100
AcDbEntity
  8
A-HATCH
100
AcDbVertex
100
AcDb2dVertex
 10
-11.498607
 20
97.999636
 30
0.0
  0
VERTEX
  5
261E
100
AcDbEntity
  8
A-HATCH
100
AcDbVertex
100
AcDb2dVertex
 10
-11.629261
 20
98.026061
 30
0.0
  0
VERTEX
  5
261F
100
AcDbEntity
  8
A-HATCH
100
AcDbVertex
100
AcDb2dVertex
 10
-11.761473
 20
98.054042
 30
0.0
  0
VERTEX
  5
2620
100
AcDbEntity
  8
A-HATCH
100
AcDbVertex
100
AcDb2dVertex
 10
-11.895502
 20
98.081764
 30
0.0
  0
VERTEX
  5
2621
100
AcDbEntity
  8
A-HATCH
100
AcDbVertex
100
AcDb2dVertex
 10
-12.031609
 20
98.107409
 30
0.0
  0
VERTEX
  5
2622
100
AcDbEntity
  8
A-HATCH
100
AcDbVertex
100
AcDb2dVertex
 10
-12.170052
 20
98.129163
 30
0.0
  0
VERTEX
  5
2623
100
AcDbEntity
  8
A-HATCH
100
AcDbVertex
100
AcDb2dVertex
 10
-12.311093
 20
98.145208
 30
0.0
  0
VERTEX
  5
2624
100
AcDbEntity
  8
A-HATCH
100
AcDbVertex
100
AcDb2dVertex
 10
-12.454989
 20
98.153728
 30
0.0
  0
VERTEX
  5
2625
100
AcDbEntity
  8
A-HATCH
100
AcDbVertex
100
AcDb2dVertex
 10
-12.601591
 20
98.153447
 30
0.0
  0
VERTEX
  5
2626
100
AcDbEntity
  8
A-HATCH
100
AcDbVertex
100
AcDb2dVertex
 10
-12.749101
 20
98.145251
 30
0.0
  0
VERTEX
  5
2627
100
AcDbEntity
  8
A-HATCH
100
AcDbVertex
100
AcDb2dVertex
 10
-12.895313
 20
98.130569
 30
0.0
  0
VERTEX
  5
2628
100
AcDbEntity
  8
A-HATCH
100
AcDbVertex
100
AcDb2dVertex
 10
-13.038019
 20
98.110826
 30
0.0
  0
VERTEX
  5
2629
100
AcDbEntity
  8
A-HATCH
100
AcDbVertex
100
AcDb2dVertex
 10
-13.175013
 20
98.087451
 30
0.0
  0
VERTEX
  5
262A
100
AcDbEntity
  8
A-HATCH
100
AcDbVertex
100
AcDb2dVertex
 10
-13.304087
 20
98.06187
 30
0.0
  0
VERTEX
  5
262B
100
AcDbEntity
  8
A-HATCH
100
AcDbVertex
100
AcDb2dVertex
 10
-13.423035
 20
98.03551
 30
0.0
  0
VERTEX
  5
262C
100
AcDbEntity
  8
A-HATCH
100
AcDbVertex
100
AcDb2dVertex
 10
-13.529648
 20
98.009799
 30
0.0
  0
VERTEX
  5
262D
100
AcDbEntity
  8
A-HATCH
100
AcDbVertex
100
AcDb2dVertex
 10
-13.622732
 20
97.98593
 30
0.0
  0
VERTEX
  5
262E
100
AcDbEntity
  8
A-HATCH
100
AcDbVertex
100
AcDb2dVertex
 10
-13.705139
 20
97.964158
 30
0.0
  0
VERTEX
  5
262F
100
AcDbEntity
  8
A-HATCH
100
AcDbVertex
100
AcDb2dVertex
 10
-13.780732
 20
97.944503
 30
0.0
  0
VERTEX
  5
2630
100
AcDbEntity
  8
A-HATCH
100
AcDbVertex
100
AcDb2dVertex
 10
-13.853376
 20
97.926986
 30
0.0
  0
VERTEX
  5
2631
100
AcDbEntity
  8
A-HATCH
100
AcDbVertex
100
AcDb2dVertex
 10
-13.926934
 20
97.911629
 30
0.0
  0
VERTEX
  5
2632
100
AcDbEntity
  8
A-HATCH
100
AcDbVertex
100
AcDb2dVertex
 10
-14.005271
 20
97.898451
 30
0.0
  0
VERTEX
  5
2633
100
AcDbEntity
  8
A-HATCH
100
AcDbVertex
100
AcDb2dVertex
 10
-14.09225
 20
97.887475
 30
0.0
  0
VERTEX
  5
2634
100
AcDbEntity
  8
A-HATCH
100
AcDbVertex
100
AcDb2dVertex
 10
-14.191735
 20
97.87872
 30
0.0
  0
VERTEX
  5
2635
100
AcDbEntity
  8
A-HATCH
100
AcDbVertex
100
AcDb2dVertex
 10
-14.307325
 20
97.872163
 30
0.0
  0
VERTEX
  5
2636
100
AcDbEntity
  8
A-HATCH
100
AcDbVertex
100
AcDb2dVertex
 10
-14.441562
 20
97.867601
 30
0.0
  0
VERTEX
  5
2637
100
AcDbEntity
  8
A-HATCH
100
AcDbVertex
100
AcDb2dVertex
 10
-14.596722
 20
97.864789
 30
0.0
  0
VERTEX
  5
2638
100
AcDbEntity
  8
A-HATCH
100
AcDbVertex
100
AcDb2dVertex
 10
-14.775081
 20
97.863478
 30
0.0
  0
VERTEX
  5
2639
100
AcDbEntity
  8
A-HATCH
100
AcDbVertex
100
AcDb2dVertex
 10
-14.978916
 20
97.863422
 30
0.0
  0
VERTEX
  5
263A
100
AcDbEntity
  8
A-HATCH
100
AcDbVertex
100
AcDb2dVertex
 10
-15.001821
 20
97.863516
 30
0.0
  0
SEQEND
  5
263B
100
AcDbEntity
  8
A-HATCH
  0
POLYLINE
  5
263C
100
AcDbEntity
  8
A-HATCH
100
AcDb2dPolyline
 66
     1
 10
0.0
 20
0.0
 30
0.0
 75
     6
  0
VERTEX
  5
263D
100
AcDbEntity
  8
A-HATCH
100
AcDbVertex
100
AcDb2dVertex
 10
-5.821497
 20
96.825086
 30
0.0
  0
VERTEX
  5
263E
100
AcDbEntity
  8
A-HATCH
100
AcDbVertex
100
AcDb2dVertex
 10
-6.065157
 20
96.681398
 30
0.0
  0
VERTEX
  5
263F
100
AcDbEntity
  8
A-HATCH
100
AcDbVertex
100
AcDb2dVertex
 10
-6.329826
 20
96.528622
 30
0.0
  0
VERTEX
  5
2640
100
AcDbEntity
  8
A-HATCH
100
AcDbVertex
100
AcDb2dVertex
 10
-6.610199
 20
96.373246
 30
0.0
  0
VERTEX
  5
2641
100
AcDbEntity
  8
A-HATCH
100
AcDbVertex
100
AcDb2dVertex
 10
-6.900975
 20
96.221758
 30
0.0
  0
VERTEX
  5
2642
100
AcDbEntity
  8
A-HATCH
100
AcDbVertex
100
AcDb2dVertex
 10
-7.196849
 20
96.080646
 30
0.0
  0
VERTEX
  5
2643
100
AcDbEntity
  8
A-HATCH
100
AcDbVertex
100
AcDb2dVertex
 10
-7.49252
 20
95.956398
 30
0.0
  0
VERTEX
  5
2644
100
AcDbEntity
  8
A-HATCH
100
AcDbVertex
100
AcDb2dVertex
 10
-7.782684
 20
95.855502
 30
0.0
  0
VERTEX
  5
2645
100
AcDbEntity
  8
A-HATCH
100
AcDbVertex
100
AcDb2dVertex
 10
-8.062038
 20
95.784447
 30
0.0
  0
VERTEX
  5
2646
100
AcDbEntity
  8
A-HATCH
100
AcDbVertex
100
AcDb2dVertex
 10
-8.326109
 20
95.747946
 30
0.0
  0
VERTEX
  5
2647
100
AcDbEntity
  8
A-HATCH
100
AcDbVertex
100
AcDb2dVertex
 10
-8.573745
 20
95.743621
 30
0.0
  0
VERTEX
  5
2648
100
AcDbEntity
  8
A-HATCH
100
AcDbVertex
100
AcDb2dVertex
 10
-8.804622
 20
95.767321
 30
0.0
  0
VERTEX
  5
2649
100
AcDbEntity
  8
A-HATCH
100
AcDbVertex
100
AcDb2dVertex
 10
-9.018418
 20
95.814893
 30
0.0
  0
VERTEX
  5
264A
100
AcDbEntity
  8
A-HATCH
100
AcDbVertex
100
AcDb2dVertex
 10
-9.214809
 20
95.882186
 30
0.0
  0
VERTEX
  5
264B
100
AcDbEntity
  8
A-HATCH
100
AcDbVertex
100
AcDb2dVertex
 10
-9.393474
 20
95.965049
 30
0.0
  0
VERTEX
  5
264C
100
AcDbEntity
  8
A-HATCH
100
AcDbVertex
100
AcDb2dVertex
 10
-9.554088
 20
96.059329
 30
0.0
  0
VERTEX
  5
264D
100
AcDbEntity
  8
A-HATCH
100
AcDbVertex
100
AcDb2dVertex
 10
-9.696329
 20
96.160874
 30
0.0
  0
VERTEX
  5
264E
100
AcDbEntity
  8
A-HATCH
100
AcDbVertex
100
AcDb2dVertex
 10
-9.820557
 20
96.265901
 30
0.0
  0
VERTEX
  5
264F
100
AcDbEntity
  8
A-HATCH
100
AcDbVertex
100
AcDb2dVertex
 10
-9.929853
 20
96.372096
 30
0.0
  0
VERTEX
  5
2650
100
AcDbEntity
  8
A-HATCH
100
AcDbVertex
100
AcDb2dVertex
 10
-10.027984
 20
96.477512
 30
0.0
  0
VERTEX
  5
2651
100
AcDbEntity
  8
A-HATCH
100
AcDbVertex
100
AcDb2dVertex
 10
-10.118715
 20
96.580204
 30
0.0
  0
VERTEX
  5
2652
100
AcDbEntity
  8
A-HATCH
100
AcDbVertex
100
AcDb2dVertex
 10
-10.20581
 20
96.678225
 30
0.0
  0
VERTEX
  5
2653
100
AcDbEntity
  8
A-HATCH
100
AcDbVertex
100
AcDb2dVertex
 10
-10.293035
 20
96.769629
 30
0.0
  0
VERTEX
  5
2654
100
AcDbEntity
  8
A-HATCH
100
AcDbVertex
100
AcDb2dVertex
 10
-10.384155
 20
96.85247
 30
0.0
  0
VERTEX
  5
2655
100
AcDbEntity
  8
A-HATCH
100
AcDbVertex
100
AcDb2dVertex
 10
-10.482935
 20
96.924801
 30
0.0
  0
VERTEX
  5
2656
100
AcDbEntity
  8
A-HATCH
100
AcDbVertex
100
AcDb2dVertex
 10
-10.592189
 20
96.985218
 30
0.0
  0
VERTEX
  5
2657
100
AcDbEntity
  8
A-HATCH
100
AcDbVertex
100
AcDb2dVertex
 10
-10.710919
 20
97.034478
 30
0.0
  0
VERTEX
  5
2658
100
AcDbEntity
  8
A-HATCH
100
AcDbVertex
100
AcDb2dVertex
 10
-10.837181
 20
97.073876
 30
0.0
  0
VERTEX
  5
2659
100
AcDbEntity
  8
A-HATCH
100
AcDbVertex
100
AcDb2dVertex
 10
-10.969024
 20
97.104712
 30
0.0
  0
VERTEX
  5
265A
100
AcDbEntity
  8
A-HATCH
100
AcDbVertex
100
AcDb2dVertex
 10
-11.104504
 20
97.128282
 30
0.0
  0
VERTEX
  5
265B
100
AcDbEntity
  8
A-HATCH
100
AcDbVertex
100
AcDb2dVertex
 10
-11.241671
 20
97.145884
 30
0.0
  0
VERTEX
  5
265C
100
AcDbEntity
  8
A-HATCH
100
AcDbVertex
100
AcDb2dVertex
 10
-11.378578
 20
97.158815
 30
0.0
  0
VERTEX
  5
265D
100
AcDbEntity
  8
A-HATCH
100
AcDbVertex
100
AcDb2dVertex
 10
-11.513278
 20
97.168372
 30
0.0
  0
VERTEX
  5
265E
100
AcDbEntity
  8
A-HATCH
100
AcDbVertex
100
AcDb2dVertex
 10
-11.644256
 20
97.17566
 30
0.0
  0
VERTEX
  5
265F
100
AcDbEntity
  8
A-HATCH
100
AcDbVertex
100
AcDb2dVertex
 10
-11.771729
 20
97.181001
 30
0.0
  0
VERTEX
  5
2660
100
AcDbEntity
  8
A-HATCH
100
AcDbVertex
100
AcDb2dVertex
 10
-11.896346
 20
97.184525
 30
0.0
  0
VERTEX
  5
2661
100
AcDbEntity
  8
A-HATCH
100
AcDbVertex
100
AcDb2dVertex
 10
-12.018755
 20
97.186364
 30
0.0
  0
VERTEX
  5
2662
100
AcDbEntity
  8
A-HATCH
100
AcDbVertex
100
AcDb2dVertex
 10
-12.139607
 20
97.186645
 30
0.0
  0
VERTEX
  5
2663
100
AcDbEntity
  8
A-HATCH
100
AcDbVertex
100
AcDb2dVertex
 10
-12.259549
 20
97.185499
 30
0.0
  0
VERTEX
  5
2664
100
AcDbEntity
  8
A-HATCH
100
AcDbVertex
100
AcDb2dVertex
 10
-12.379232
 20
97.183055
 30
0.0
  0
VERTEX
  5
2665
100
AcDbEntity
  8
A-HATCH
100
AcDbVertex
100
AcDb2dVertex
 10
-12.499305
 20
97.179444
 30
0.0
  0
VERTEX
  5
2666
100
AcDbEntity
  8
A-HATCH
100
AcDbVertex
100
AcDb2dVertex
 10
-12.620285
 20
97.174786
 30
0.0
  0
VERTEX
  5
2667
100
AcDbEntity
  8
A-HATCH
100
AcDbVertex
100
AcDb2dVertex
 10
-12.742165
 20
97.169164
 30
0.0
  0
VERTEX
  5
2668
100
AcDbEntity
  8
A-HATCH
100
AcDbVertex
100
AcDb2dVertex
 10
-12.864808
 20
97.162652
 30
0.0
  0
VERTEX
  5
2669
100
AcDbEntity
  8
A-HATCH
100
AcDbVertex
100
AcDb2dVertex
 10
-12.988074
 20
97.155326
 30
0.0
  0
VERTEX
  5
266A
100
AcDbEntity
  8
A-HATCH
100
AcDbVertex
100
AcDb2dVertex
 10
-13.111826
 20
97.147259
 30
0.0
  0
VERTEX
  5
266B
100
AcDbEntity
  8
A-HATCH
100
AcDbVertex
100
AcDb2dVertex
 10
-13.235925
 20
97.138525
 30
0.0
  0
VERTEX
  5
266C
100
AcDbEntity
  8
A-HATCH
100
AcDbVertex
100
AcDb2dVertex
 10
-13.360234
 20
97.1292
 30
0.0
  0
VERTEX
  5
266D
100
AcDbEntity
  8
A-HATCH
100
AcDbVertex
100
AcDb2dVertex
 10
-13.484613
 20
97.119356
 30
0.0
  0
VERTEX
  5
266E
100
AcDbEntity
  8
A-HATCH
100
AcDbVertex
100
AcDb2dVertex
 10
-13.609739
 20
97.108991
 30
0.0
  0
VERTEX
  5
266F
100
AcDbEntity
  8
A-HATCH
100
AcDbVertex
100
AcDb2dVertex
 10
-13.739545
 20
97.097784
 30
0.0
  0
VERTEX
  5
2670
100
AcDbEntity
  8
A-HATCH
100
AcDbVertex
100
AcDb2dVertex
 10
-13.878778
 20
97.085341
 30
0.0
  0
VERTEX
  5
2671
100
AcDbEntity
  8
A-HATCH
100
AcDbVertex
100
AcDb2dVertex
 10
-14.032184
 20
97.071262
 30
0.0
  0
VERTEX
  5
2672
100
AcDbEntity
  8
A-HATCH
100
AcDbVertex
100
AcDb2dVertex
 10
-14.194401
 20
97.056096
 30
0.0
  0
SEQEND
  5
2673
100
AcDbEntity
  8
A-HATCH
  0
POLYLINE
  5
2674
100
AcDbEntity
  8
A-HATCH
100
AcDb2dPolyline
 66
     1
 10
0.0
 20
0.0
 30
0.0
 75
     6
  0
VERTEX
  5
2675
100
AcDbEntity
  8
A-HATCH
100
AcDbVertex
100
AcDb2dVertex
 10
-13.644875
 20
96.50657
 30
0.0
  0
VERTEX
  5
2676
100
AcDbEntity
  8
A-HATCH
100
AcDbVertex
100
AcDb2dVertex
 10
-13.392756
 20
96.503224
 30
0.0
  0
VERTEX
  5
2677
100
AcDbEntity
  8
A-HATCH
100
AcDbVertex
100
AcDb2dVertex
 10
-13.013542
 20
96.491754
 30
0.0
  0
VERTEX
  5
2678
100
AcDbEntity
  8
A-HATCH
100
AcDbVertex
100
AcDb2dVertex
 10
-12.633255
 20
96.471416
 30
0.0
  0
VERTEX
  5
2679
100
AcDbEntity
  8
A-HATCH
100
AcDbVertex
100
AcDb2dVertex
 10
-12.262263
 20
96.439932
 30
0.0
  0
VERTEX
  5
267A
100
AcDbEntity
  8
A-HATCH
100
AcDbVertex
100
AcDb2dVertex
 10
-11.910931
 20
96.395022
 30
0.0
  0
VERTEX
  5
267B
100
AcDbEntity
  8
A-HATCH
100
AcDbVertex
100
AcDb2dVertex
 10
-11.589627
 20
96.334407
 30
0.0
  0
VERTEX
  5
267C
100
AcDbEntity
  8
A-HATCH
100
AcDbVertex
100
AcDb2dVertex
 10
-11.306191
 20
96.256693
 30
0.0
  0
VERTEX
  5
267D
100
AcDbEntity
  8
A-HATCH
100
AcDbVertex
100
AcDb2dVertex
 10
-11.05836
 20
96.164022
 30
0.0
  0
VERTEX
  5
267E
100
AcDbEntity
  8
A-HATCH
100
AcDbVertex
100
AcDb2dVertex
 10
-10.841344
 20
96.059421
 30
0.0
  0
VERTEX
  5
267F
100
AcDbEntity
  8
A-HATCH
100
AcDbVertex
100
AcDb2dVertex
 10
-10.650354
 20
95.945915
 30
0.0
  0
VERTEX
  5
2680
100
AcDbEntity
  8
A-HATCH
100
AcDbVertex
100
AcDb2dVertex
 10
-10.4806
 20
95.826531
 30
0.0
  0
VERTEX
  5
2681
100
AcDbEntity
  8
A-HATCH
100
AcDbVertex
100
AcDb2dVertex
 10
-10.327292
 20
95.704296
 30
0.0
  0
VERTEX
  5
2682
100
AcDbEntity
  8
A-HATCH
100
AcDbVertex
100
AcDb2dVertex
 10
-10.18564
 20
95.582235
 30
0.0
  0
VERTEX
  5
2683
100
AcDbEntity
  8
A-HATCH
100
AcDbVertex
100
AcDb2dVertex
 10
-10.050856
 20
95.463376
 30
0.0
  0
VERTEX
  5
2684
100
AcDbEntity
  8
A-HATCH
100
AcDbVertex
100
AcDb2dVertex
 10
-9.918644
 20
95.350413
 30
0.0
  0
VERTEX
  5
2685
100
AcDbEntity
  8
A-HATCH
100
AcDbVertex
100
AcDb2dVertex
 10
-9.786692
 20
95.244716
 30
0.0
  0
VERTEX
  5
2686
100
AcDbEntity
  8
A-HATCH
100
AcDbVertex
100
AcDb2dVertex
 10
-9.653182
 20
95.147322
 30
0.0
  0
VERTEX
  5
2687
100
AcDbEntity
  8
A-HATCH
100
AcDbVertex
100
AcDb2dVertex
 10
-9.516296
 20
95.05927
 30
0.0
  0
VERTEX
  5
2688
100
AcDbEntity
  8
A-HATCH
100
AcDbVertex
100
AcDb2dVertex
 10
-9.374218
 20
94.981597
 30
0.0
  0
VERTEX
  5
2689
100
AcDbEntity
  8
A-HATCH
100
AcDbVertex
100
AcDb2dVertex
 10
-9.225128
 20
94.915341
 30
0.0
  0
VERTEX
  5
268A
100
AcDbEntity
  8
A-HATCH
100
AcDbVertex
100
AcDb2dVertex
 10
-9.067209
 20
94.861541
 30
0.0
  0
VERTEX
  5
268B
100
AcDbEntity
  8
A-HATCH
100
AcDbVertex
100
AcDb2dVertex
 10
-8.898645
 20
94.821234
 30
0.0
  0
VERTEX
  5
268C
100
AcDbEntity
  8
A-HATCH
100
AcDbVertex
100
AcDb2dVertex
 10
-8.718373
 20
94.795178
 30
0.0
  0
VERTEX
  5
268D
100
AcDbEntity
  8
A-HATCH
100
AcDbVertex
100
AcDb2dVertex
 10
-8.528363
 20
94.783003
 30
0.0
  0
VERTEX
  5
268E
100
AcDbEntity
  8
A-HATCH
100
AcDbVertex
100
AcDb2dVertex
 10
-8.331338
 20
94.784063
 30
0.0
  0
VERTEX
  5
268F
100
AcDbEntity
  8
A-HATCH
100
AcDbVertex
100
AcDb2dVertex
 10
-8.130024
 20
94.797708
 30
0.0
  0
VERTEX
  5
2690
100
AcDbEntity
  8
A-HATCH
100
AcDbVertex
100
AcDb2dVertex
 10
-7.927145
 20
94.823289
 30
0.0
  0
VERTEX
  5
2691
100
AcDbEntity
  8
A-HATCH
100
AcDbVertex
100
AcDb2dVertex
 10
-7.725426
 20
94.860157
 30
0.0
  0
VERTEX
  5
2692
100
AcDbEntity
  8
A-HATCH
100
AcDbVertex
100
AcDb2dVertex
 10
-7.527591
 20
94.907665
 30
0.0
  0
VERTEX
  5
2693
100
AcDbEntity
  8
A-HATCH
100
AcDbVertex
100
AcDb2dVertex
 10
-7.336366
 20
94.965163
 30
0.0
  0
VERTEX
  5
2694
100
AcDbEntity
  8
A-HATCH
100
AcDbVertex
100
AcDb2dVertex
 10
-7.153401
 20
95.032199
 30
0.0
  0
VERTEX
  5
2695
100
AcDbEntity
  8
A-HATCH
100
AcDbVertex
100
AcDb2dVertex
 10
-6.97605
 20
95.109109
 30
0.0
  0
VERTEX
  5
2696
100
AcDbEntity
  8
A-HATCH
100
AcDbVertex
100
AcDb2dVertex
 10
-6.800593
 20
95.196425
 30
0.0
  0
VERTEX
  5
2697
100
AcDbEntity
  8
A-HATCH
100
AcDbVertex
100
AcDb2dVertex
 10
-6.623308
 20
95.294679
 30
0.0
  0
VERTEX
  5
2698
100
AcDbEntity
  8
A-HATCH
100
AcDbVertex
100
AcDb2dVertex
 10
-6.440477
 20
95.404404
 30
0.0
  0
VERTEX
  5
2699
100
AcDbEntity
  8
A-HATCH
100
AcDbVertex
100
AcDb2dVertex
 10
-6.248378
 20
95.526132
 30
0.0
  0
VERTEX
  5
269A
100
AcDbEntity
  8
A-HATCH
100
AcDbVertex
100
AcDb2dVertex
 10
-6.043292
 20
95.660395
 30
0.0
  0
VERTEX
  5
269B
100
AcDbEntity
  8
A-HATCH
100
AcDbVertex
100
AcDb2dVertex
 10
-5.821497
 20
95.807725
 30
0.0
  0
SEQEND
  5
269C
100
AcDbEntity
  8
A-HATCH
  0
POLYLINE
  5
26C5
100
AcDbEntity
  8
A-HATCH
100
AcDb2dPolyline
 66
     1
 10
0.0
 20
0.0
 30
0.0
 75
     6
  0
VERTEX
  5
26C6
100
AcDbEntity
  8
A-HATCH
100
AcDbVertex
100
AcDb2dVertex
 10
-11.48292
 20
94.344615
 30
0.0
  0
VERTEX
  5
26C7
100
AcDbEntity
  8
A-HATCH
100
AcDbVertex
100
AcDb2dVertex
 10
-11.305447
 20
94.414959
 30
0.0
  0
VERTEX
  5
26C8
100
AcDbEntity
  8
A-HATCH
100
AcDbVertex
100
AcDb2dVertex
 10
-11.131948
 20
94.485437
 30
0.0
  0
VERTEX
  5
26C9
100
AcDbEntity
  8
A-HATCH
100
AcDbVertex
100
AcDb2dVertex
 10
-10.972391
 20
94.552444
 30
0.0
  0
VERTEX
  5
26CA
100
AcDbEntity
  8
A-HATCH
100
AcDbVertex
100
AcDb2dVertex
 10
-10.829289
 20
94.615329
 30
0.0
  0
VERTEX
  5
26CB
100
AcDbEntity
  8
A-HATCH
100
AcDbVertex
100
AcDb2dVertex
 10
-10.704795
 20
94.673779
 30
0.0
  0
VERTEX
  5
26CC
100
AcDbEntity
  8
A-HATCH
100
AcDbVertex
100
AcDb2dVertex
 10
-10.599625
 20
94.728832
 30
0.0
  0
VERTEX
  5
26CD
100
AcDbEntity
  8
A-HATCH
100
AcDbVertex
100
AcDb2dVertex
 10
-10.514134
 20
94.781863
 30
0.0
  0
VERTEX
  5
26CE
100
AcDbEntity
  8
A-HATCH
100
AcDbVertex
100
AcDb2dVertex
 10
-10.448677
 20
94.834246
 30
0.0
  0
VERTEX
  5
26CF
100
AcDbEntity
  8
A-HATCH
100
AcDbVertex
100
AcDb2dVertex
 10
-10.40361
 20
94.887357
 30
0.0
  0
VERTEX
  5
26D0
100
AcDbEntity
  8
A-HATCH
100
AcDbVertex
100
AcDb2dVertex
 10
-10.379289
 20
94.94257
 30
0.0
  0
VERTEX
  5
26D1
100
AcDbEntity
  8
A-HATCH
100
AcDbVertex
100
AcDb2dVertex
 10
-10.376068
 20
95.001261
 30
0.0
  0
VERTEX
  5
26D2
100
AcDbEntity
  8
A-HATCH
100
AcDbVertex
100
AcDb2dVertex
 10
-10.394304
 20
95.064805
 30
0.0
  0
VERTEX
  5
26D3
100
AcDbEntity
  8
A-HATCH
100
AcDbVertex
100
AcDb2dVertex
 10
-10.433816
 20
95.134088
 30
0.0
  0
VERTEX
  5
26D4
100
AcDbEntity
  8
A-HATCH
100
AcDbVertex
100
AcDb2dVertex
 10
-10.492283
 20
95.208041
 30
0.0
  0
VERTEX
  5
26D5
100
AcDbEntity
  8
A-HATCH
100
AcDbVertex
100
AcDb2dVertex
 10
-10.56685
 20
95.285109
 30
0.0
  0
VERTEX
  5
26D6
100
AcDbEntity
  8
A-HATCH
100
AcDbVertex
100
AcDb2dVertex
 10
-10.654659
 20
95.363733
 30
0.0
  0
VERTEX
  5
26D7
100
AcDbEntity
  8
A-HATCH
100
AcDbVertex
100
AcDb2dVertex
 10
-10.752855
 20
95.442357
 30
0.0
  0
VERTEX
  5
26D8
100
AcDbEntity
  8
A-HATCH
100
AcDbVertex
100
AcDb2dVertex
 10
-10.858581
 20
95.519425
 30
0.0
  0
VERTEX
  5
26D9
100
AcDbEntity
  8
A-HATCH
100
AcDbVertex
100
AcDb2dVertex
 10
-10.968981
 20
95.593378
 30
0.0
  0
VERTEX
  5
26DA
100
AcDbEntity
  8
A-HATCH
100
AcDbVertex
100
AcDb2dVertex
 10
-11.081199
 20
95.662661
 30
0.0
  0
VERTEX
  5
26DB
100
AcDbEntity
  8
A-HATCH
100
AcDbVertex
100
AcDb2dVertex
 10
-11.193051
 20
95.725804
 30
0.0
  0
VERTEX
  5
26DC
100
AcDbEntity
  8
A-HATCH
100
AcDbVertex
100
AcDb2dVertex
 10
-11.305043
 20
95.78169
 30
0.0
  0
VERTEX
  5
26DD
100
AcDbEntity
  8
A-HATCH
100
AcDbVertex
100
AcDb2dVertex
 10
-11.418357
 20
95.829288
 30
0.0
  0
VERTEX
  5
26DE
100
AcDbEntity
  8
A-HATCH
100
AcDbVertex
100
AcDb2dVertex
 10
-11.534172
 20
95.86757
 30
0.0
  0
VERTEX
  5
26DF
100
AcDbEntity
  8
A-HATCH
100
AcDbVertex
100
AcDb2dVertex
 10
-11.653667
 20
95.895506
 30
0.0
  0
VERTEX
  5
26E0
100
AcDbEntity
  8
A-HATCH
100
AcDbVertex
100
AcDb2dVertex
 10
-11.778023
 20
95.912066
 30
0.0
  0
VERTEX
  5
26E1
100
AcDbEntity
  8
A-HATCH
100
AcDbVertex
100
AcDb2dVertex
 10
-11.908418
 20
95.91622
 30
0.0
  0
VERTEX
  5
26E2
100
AcDbEntity
  8
A-HATCH
100
AcDbVertex
100
AcDb2dVertex
 10
-12.046034
 20
95.906939
 30
0.0
  0
VERTEX
  5
26E3
100
AcDbEntity
  8
A-HATCH
100
AcDbVertex
100
AcDb2dVertex
 10
-12.191853
 20
95.883592
 30
0.0
  0
VERTEX
  5
26E4
100
AcDbEntity
  8
A-HATCH
100
AcDbVertex
100
AcDb2dVertex
 10
-12.346068
 20
95.847144
 30
0.0
  0
VERTEX
  5
26E5
100
AcDbEntity
  8
A-HATCH
100
AcDbVertex
100
AcDb2dVertex
 10
-12.508679
 20
95.798961
 30
0.0
  0
VERTEX
  5
26E6
100
AcDbEntity
  8
A-HATCH
100
AcDbVertex
100
AcDb2dVertex
 10
-12.679681
 20
95.740406
 30
0.0
  0
VERTEX
  5
26E7
100
AcDbEntity
  8
A-HATCH
100
AcDbVertex
100
AcDb2dVertex
 10
-12.82426
 20
95.685955
 30
0.0
  0
SEQEND
  5
26E8
100
AcDbEntity
  8
A-HATCH
  0
POLYLINE
  5
26E9
100
AcDbEntity
  8
A-HATCH
100
AcDb2dPolyline
 66
     1
 10
0.0
 20
0.0
 30
0.0
 75
     6
  0
VERTEX
  5
26EA
100
AcDbEntity
  8
A-HATCH
100
AcDbVertex
100
AcDb2dVertex
 10
-5.821497
 20
94.581785
 30
0.0
  0
VERTEX
  5
26EB
100
AcDbEntity
  8
A-HATCH
100
AcDbVertex
100
AcDb2dVertex
 10
-6.050659
 20
94.514677
 30
0.0
  0
VERTEX
  5
26EC
100
AcDbEntity
  8
A-HATCH
100
AcDbVertex
100
AcDb2dVertex
 10
-6.276162
 20
94.449919
 30
0.0
  0
VERTEX
  5
26ED
100
AcDbEntity
  8
A-HATCH
100
AcDbVertex
100
AcDb2dVertex
 10
-6.499193
 20
94.388434
 30
0.0
  0
VERTEX
  5
26EE
100
AcDbEntity
  8
A-HATCH
100
AcDbVertex
100
AcDb2dVertex
 10
-6.720942
 20
94.331148
 30
0.0
  0
VERTEX
  5
26EF
100
AcDbEntity
  8
A-HATCH
100
AcDbVertex
100
AcDb2dVertex
 10
-6.942596
 20
94.278985
 30
0.0
  0
VERTEX
  5
26F0
100
AcDbEntity
  8
A-HATCH
100
AcDbVertex
100
AcDb2dVertex
 10
-7.165345
 20
94.232871
 30
0.0
  0
VERTEX
  5
26F1
100
AcDbEntity
  8
A-HATCH
100
AcDbVertex
100
AcDb2dVertex
 10
-7.390376
 20
94.193729
 30
0.0
  0
VERTEX
  5
26F2
100
AcDbEntity
  8
A-HATCH
100
AcDbVertex
100
AcDb2dVertex
 10
-7.61888
 20
94.162486
 30
0.0
  0
VERTEX
  5
26F3
100
AcDbEntity
  8
A-HATCH
100
AcDbVertex
100
AcDb2dVertex
 10
-7.85151
 20
94.139748
 30
0.0
  0
VERTEX
  5
26F4
100
AcDbEntity
  8
A-HATCH
100
AcDbVertex
100
AcDb2dVertex
 10
-8.08679
 20
94.12486
 30
0.0
  0
VERTEX
  5
26F5
100
AcDbEntity
  8
A-HATCH
100
AcDbVertex
100
AcDb2dVertex
 10
-8.322709
 20
94.116848
 30
0.0
  0
VERTEX
  5
26F6
100
AcDbEntity
  8
A-HATCH
100
AcDbVertex
100
AcDb2dVertex
 10
-8.557256
 20
94.11474
 30
0.0
  0
VERTEX
  5
26F7
100
AcDbEntity
  8
A-HATCH
100
AcDbVertex
100
AcDb2dVertex
 10
-8.788421
 20
94.117562
 30
0.0
  0
VERTEX
  5
26F8
100
AcDbEntity
  8
A-HATCH
100
AcDbVertex
100
AcDb2dVertex
 10
-9.014192
 20
94.124341
 30
0.0
  0
VERTEX
  5
26F9
100
AcDbEntity
  8
A-HATCH
100
AcDbVertex
100
AcDb2dVertex
 10
-9.23256
 20
94.134104
 30
0.0
  0
VERTEX
  5
26FA
100
AcDbEntity
  8
A-HATCH
100
AcDbVertex
100
AcDb2dVertex
 10
-9.441513
 20
94.145878
 30
0.0
  0
VERTEX
  5
26FB
100
AcDbEntity
  8
A-HATCH
100
AcDbVertex
100
AcDb2dVertex
 10
-9.639525
 20
94.158604
 30
0.0
  0
VERTEX
  5
26FC
100
AcDbEntity
  8
A-HATCH
100
AcDbVertex
100
AcDb2dVertex
 10
-9.826998
 20
94.170873
 30
0.0
  0
VERTEX
  5
26FD
100
AcDbEntity
  8
A-HATCH
100
AcDbVertex
100
AcDb2dVertex
 10
-10.004823
 20
94.181191
 30
0.0
  0
VERTEX
  5
26FE
100
AcDbEntity
  8
A-HATCH
100
AcDbVertex
100
AcDb2dVertex
 10
-10.173885
 20
94.188065
 30
0.0
  0
VERTEX
  5
26FF
100
AcDbEntity
  8
A-HATCH
100
AcDbVertex
100
AcDb2dVertex
 10
-10.335074
 20
94.189999
 30
0.0
  0
VERTEX
  5
2700
100
AcDbEntity
  8
A-HATCH
100
AcDbVertex
100
AcDb2dVertex
 10
-10.489277
 20
94.1855
 30
0.0
  0
VERTEX
  5
2701
100
AcDbEntity
  8
A-HATCH
100
AcDbVertex
100
AcDb2dVertex
 10
-10.637382
 20
94.173074
 30
0.0
  0
VERTEX
  5
2702
100
AcDbEntity
  8
A-HATCH
100
AcDbVertex
100
AcDb2dVertex
 10
-10.780276
 20
94.151226
 30
0.0
  0
VERTEX
  5
2703
100
AcDbEntity
  8
A-HATCH
100
AcDbVertex
100
AcDb2dVertex
 10
-10.919094
 20
94.118764
 30
0.0
  0
VERTEX
  5
2704
100
AcDbEntity
  8
A-HATCH
100
AcDbVertex
100
AcDb2dVertex
 10
-11.055954
 20
94.075704
 30
0.0
  0
VERTEX
  5
2705
100
AcDbEntity
  8
A-HATCH
100
AcDbVertex
100
AcDb2dVertex
 10
-11.169778
 20
94.031474
 30
0.0
  0
SEQEND
  5
2706
100
AcDbEntity
  8
A-HATCH
  0
POLYLINE
  5
2707
100
AcDbEntity
  8
A-HATCH
100
AcDb2dPolyline
 66
     1
 10
0.0
 20
0.0
 30
0.0
 75
     6
  0
VERTEX
  5
2708
100
AcDbEntity
  8
A-HATCH
100
AcDbVertex
100
AcDb2dVertex
 10
-5.821497
 20
93.406754
 30
0.0
  0
VERTEX
  5
2709
100
AcDbEntity
  8
A-HATCH
100
AcDbVertex
100
AcDb2dVertex
 10
-6.068143
 20
93.432225
 30
0.0
  0
VERTEX
  5
270A
100
AcDbEntity
  8
A-HATCH
100
AcDbVertex
100
AcDb2dVertex
 10
-6.341251
 20
93.460314
 30
0.0
  0
VERTEX
  5
270B
100
AcDbEntity
  8
A-HATCH
100
AcDbVertex
100
AcDb2dVertex
 10
-6.634737
 20
93.490277
 30
0.0
  0
VERTEX
  5
270C
100
AcDbEntity
  8
A-HATCH
100
AcDbVertex
100
AcDb2dVertex
 10
-6.942521
 20
93.521368
 30
0.0
  0
VERTEX
  5
270D
100
AcDbEntity
  8
A-HATCH
100
AcDbVertex
100
AcDb2dVertex
 10
-7.258519
 20
93.552844
 30
0.0
  0
VERTEX
  5
270E
100
AcDbEntity
  8
A-HATCH
100
AcDbVertex
100
AcDb2dVertex
 10
-7.576651
 20
93.58396
 30
0.0
  0
VERTEX
  5
270F
100
AcDbEntity
  8
A-HATCH
100
AcDbVertex
100
AcDb2dVertex
 10
-7.890833
 20
93.613969
 30
0.0
  0
VERTEX
  5
2710
100
AcDbEntity
  8
A-HATCH
100
AcDbVertex
100
AcDb2dVertex
 10
-8.194985
 20
93.642129
 30
0.0
  0
VERTEX
  5
2711
100
AcDbEntity
  8
A-HATCH
100
AcDbVertex
100
AcDb2dVertex
 10
-8.484164
 20
93.667571
 30
0.0
  0
VERTEX
  5
2712
100
AcDbEntity
  8
A-HATCH
100
AcDbVertex
100
AcDb2dVertex
 10
-8.757987
 20
93.688934
 30
0.0
  0
VERTEX
  5
2713
100
AcDbEntity
  8
A-HATCH
100
AcDbVertex
100
AcDb2dVertex
 10
-9.01721
 20
93.704735
 30
0.0
  0
VERTEX
  5
2714
100
AcDbEntity
  8
A-HATCH
100
AcDbVertex
100
AcDb2dVertex
 10
-9.26259
 20
93.71349
 30
0.0
  0
VERTEX
  5
2715
100
AcDbEntity
  8
A-HATCH
100
AcDbVertex
100
AcDb2dVertex
 10
-9.494883
 20
93.713714
 30
0.0
  0
VERTEX
  5
2716
100
AcDbEntity
  8
A-HATCH
100
AcDbVertex
100
AcDb2dVertex
 10
-9.714847
 20
93.703925
 30
0.0
  0
VERTEX
  5
2717
100
AcDbEntity
  8
A-HATCH
100
AcDbVertex
100
AcDb2dVertex
 10
-9.923237
 20
93.682637
 30
0.0
  0
VERTEX
  5
2718
100
AcDbEntity
  8
A-HATCH
100
AcDbVertex
100
AcDb2dVertex
 10
-10.120811
 20
93.648369
 30
0.0
  0
VERTEX
  5
2719
100
AcDbEntity
  8
A-HATCH
100
AcDbVertex
100
AcDb2dVertex
 10
-10.308504
 20
93.600121
 30
0.0
  0
VERTEX
  5
271A
100
AcDbEntity
  8
A-HATCH
100
AcDbVertex
100
AcDb2dVertex
 10
-10.487971
 20
93.538841
 30
0.0
  0
VERTEX
  5
271B
100
AcDbEntity
  8
A-HATCH
100
AcDbVertex
100
AcDb2dVertex
 10
-10.62109
 20
93.482785
 30
0.0
  0
SEQEND
  5
271C
100
AcDbEntity
  8
A-HATCH
  0
POLYLINE
  5
271D
100
AcDbEntity
  8
A-HATCH
100
AcDb2dPolyline
 66
     1
 10
0.0
 20
0.0
 30
0.0
 75
     6
  0
VERTEX
  5
271E
100
AcDbEntity
  8
A-HATCH
100
AcDbVertex
100
AcDb2dVertex
 10
-9.977373
 20
92.839068
 30
0.0
  0
VERTEX
  5
271F
100
AcDbEntity
  8
A-HATCH
100
AcDbVertex
100
AcDb2dVertex
 10
-9.907371
 20
92.851544
 30
0.0
  0
VERTEX
  5
2720
100
AcDbEntity
  8
A-HATCH
100
AcDbVertex
100
AcDb2dVertex
 10
-9.831375
 20
92.86052
 30
0.0
  0
VERTEX
  5
2721
100
AcDbEntity
  8
A-HATCH
100
AcDbVertex
100
AcDb2dVertex
 10
-9.758965
 20
92.867132
 30
0.0
  0
VERTEX
  5
2722
100
AcDbEntity
  8
A-HATCH
100
AcDbVertex
100
AcDb2dVertex
 10
-9.688446
 20
92.872285
 30
0.0
  0
VERTEX
  5
2723
100
AcDbEntity
  8
A-HATCH
100
AcDbVertex
100
AcDb2dVertex
 10
-9.619403
 20
92.876093
 30
0.0
  0
VERTEX
  5
2724
100
AcDbEntity
  8
A-HATCH
100
AcDbVertex
100
AcDb2dVertex
 10
-9.55142
 20
92.87867
 30
0.0
  0
VERTEX
  5
2725
100
AcDbEntity
  8
A-HATCH
100
AcDbVertex
100
AcDb2dVertex
 10
-9.484083
 20
92.880131
 30
0.0
  0
VERTEX
  5
2726
100
AcDbEntity
  8
A-HATCH
100
AcDbVertex
100
AcDb2dVertex
 10
-9.416976
 20
92.88059
 30
0.0
  0
VERTEX
  5
2727
100
AcDbEntity
  8
A-HATCH
100
AcDbVertex
100
AcDb2dVertex
 10
-9.349684
 20
92.880161
 30
0.0
  0
VERTEX
  5
2728
100
AcDbEntity
  8
A-HATCH
100
AcDbVertex
100
AcDb2dVertex
 10
-9.281791
 20
92.87896
 30
0.0
  0
VERTEX
  5
2729
100
AcDbEntity
  8
A-HATCH
100
AcDbVertex
100
AcDb2dVertex
 10
-9.212956
 20
92.877088
 30
0.0
  0
VERTEX
  5
272A
100
AcDbEntity
  8
A-HATCH
100
AcDbVertex
100
AcDb2dVertex
 10
-9.14312
 20
92.874601
 30
0.0
  0
VERTEX
  5
272B
100
AcDbEntity
  8
A-HATCH
100
AcDbVertex
100
AcDb2dVertex
 10
-9.0723
 20
92.871542
 30
0.0
  0
VERTEX
  5
272C
100
AcDbEntity
  8
A-HATCH
100
AcDbVertex
100
AcDb2dVertex
 10
-9.000512
 20
92.867954
 30
0.0
  0
VERTEX
  5
272D
100
AcDbEntity
  8
A-HATCH
100
AcDbVertex
100
AcDb2dVertex
 10
-8.927771
 20
92.863881
 30
0.0
  0
VERTEX
  5
272E
100
AcDbEntity
  8
A-HATCH
100
AcDbVertex
100
AcDb2dVertex
 10
-8.854093
 20
92.859365
 30
0.0
  0
VERTEX
  5
272F
100
AcDbEntity
  8
A-HATCH
100
AcDbVertex
100
AcDb2dVertex
 10
-8.779494
 20
92.85445
 30
0.0
  0
VERTEX
  5
2730
100
AcDbEntity
  8
A-HATCH
100
AcDbVertex
100
AcDb2dVertex
 10
-8.703989
 20
92.849179
 30
0.0
  0
VERTEX
  5
2731
100
AcDbEntity
  8
A-HATCH
100
AcDbVertex
100
AcDb2dVertex
 10
-8.627593
 20
92.843596
 30
0.0
  0
VERTEX
  5
2732
100
AcDbEntity
  8
A-HATCH
100
AcDbVertex
100
AcDb2dVertex
 10
-8.550323
 20
92.837743
 30
0.0
  0
VERTEX
  5
2733
100
AcDbEntity
  8
A-HATCH
100
AcDbVertex
100
AcDb2dVertex
 10
-8.472194
 20
92.831664
 30
0.0
  0
VERTEX
  5
2734
100
AcDbEntity
  8
A-HATCH
100
AcDbVertex
100
AcDb2dVertex
 10
-8.393222
 20
92.825402
 30
0.0
  0
VERTEX
  5
2735
100
AcDbEntity
  8
A-HATCH
100
AcDbVertex
100
AcDb2dVertex
 10
-8.313423
 20
92.819
 30
0.0
  0
VERTEX
  5
2736
100
AcDbEntity
  8
A-HATCH
100
AcDbVertex
100
AcDb2dVertex
 10
-8.232811
 20
92.812501
 30
0.0
  0
VERTEX
  5
2737
100
AcDbEntity
  8
A-HATCH
100
AcDbVertex
100
AcDb2dVertex
 10
-8.151403
 20
92.805949
 30
0.0
  0
VERTEX
  5
2738
100
AcDbEntity
  8
A-HATCH
100
AcDbVertex
100
AcDb2dVertex
 10
-8.069214
 20
92.799387
 30
0.0
  0
VERTEX
  5
2739
100
AcDbEntity
  8
A-HATCH
100
AcDbVertex
100
AcDb2dVertex
 10
-7.986143
 20
92.792853
 30
0.0
  0
VERTEX
  5
273A
100
AcDbEntity
  8
A-HATCH
100
AcDbVertex
100
AcDb2dVertex
 10
-7.901613
 20
92.78637
 30
0.0
  0
VERTEX
  5
273B
100
AcDbEntity
  8
A-HATCH
100
AcDbVertex
100
AcDb2dVertex
 10
-7.814931
 20
92.779953
 30
0.0
  0
VERTEX
  5
273C
100
AcDbEntity
  8
A-HATCH
100
AcDbVertex
100
AcDb2dVertex
 10
-7.725404
 20
92.773619
 30
0.0
  0
VERTEX
  5
273D
100
AcDbEntity
  8
A-HATCH
100
AcDbVertex
100
AcDb2dVertex
 10
-7.632338
 20
92.767385
 30
0.0
  0
VERTEX
  5
273E
100
AcDbEntity
  8
A-HATCH
100
AcDbVertex
100
AcDb2dVertex
 10
-7.535041
 20
92.761268
 30
0.0
  0
VERTEX
  5
273F
100
AcDbEntity
  8
A-HATCH
100
AcDbVertex
100
AcDb2dVertex
 10
-7.432819
 20
92.755285
 30
0.0
  0
VERTEX
  5
2740
100
AcDbEntity
  8
A-HATCH
100
AcDbVertex
100
AcDb2dVertex
 10
-7.324978
 20
92.749451
 30
0.0
  0
VERTEX
  5
2741
100
AcDbEntity
  8
A-HATCH
100
AcDbVertex
100
AcDb2dVertex
 10
-7.210131
 20
92.743943
 30
0.0
  0
VERTEX
  5
2742
100
AcDbEntity
  8
A-HATCH
100
AcDbVertex
100
AcDb2dVertex
 10
-7.084116
 20
92.739563
 30
0.0
  0
VERTEX
  5
2743
100
AcDbEntity
  8
A-HATCH
100
AcDbVertex
100
AcDb2dVertex
 10
-6.942075
 20
92.737273
 30
0.0
  0
VERTEX
  5
2744
100
AcDbEntity
  8
A-HATCH
100
AcDbVertex
100
AcDb2dVertex
 10
-6.779152
 20
92.738036
 30
0.0
  0
VERTEX
  5
2745
100
AcDbEntity
  8
A-HATCH
100
AcDbVertex
100
AcDb2dVertex
 10
-6.590489
 20
92.742814
 30
0.0
  0
VERTEX
  5
2746
100
AcDbEntity
  8
A-HATCH
100
AcDbVertex
100
AcDb2dVertex
 10
-6.37123
 20
92.752567
 30
0.0
  0
VERTEX
  5
2747
100
AcDbEntity
  8
A-HATCH
100
AcDbVertex
100
AcDb2dVertex
 10
-6.116519
 20
92.768258
 30
0.0
  0
VERTEX
  5
2748
100
AcDbEntity
  8
A-HATCH
100
AcDbVertex
100
AcDb2dVertex
 10
-5.821497
 20
92.790848
 30
0.0
  0
SEQEND
  5
2749
100
AcDbEntity
  8
A-HATCH
  0
POLYLINE
  5
274A
100
AcDbEntity
  8
A-HATCH
100
AcDb2dPolyline
 66
     1
 10
0.0
 20
0.0
 30
0.0
 75
     6
  0
VERTEX
  5
274B
100
AcDbEntity
  8
A-HATCH
100
AcDbVertex
100
AcDb2dVertex
 10
-5.821497
 20
91.620096
 30
0.0
  0
VERTEX
  5
274C
100
AcDbEntity
  8
A-HATCH
100
AcDbVertex
100
AcDb2dVertex
 10
-6.069279
 20
91.669483
 30
0.0
  0
VERTEX
  5
274D
100
AcDbEntity
  8
A-HATCH
100
AcDbVertex
100
AcDb2dVertex
 10
-6.344107
 20
91.723548
 30
0.0
  0
VERTEX
  5
274E
100
AcDbEntity
  8
A-HATCH
100
AcDbVertex
100
AcDb2dVertex
 10
-6.637366
 20
91.779842
 30
0.0
  0
VERTEX
  5
274F
100
AcDbEntity
  8
A-HATCH
100
AcDbVertex
100
AcDb2dVertex
 10
-6.940443
 20
91.835918
 30
0.0
  0
VERTEX
  5
2750
100
AcDbEntity
  8
A-HATCH
100
AcDbVertex
100
AcDb2dVertex
 10
-7.244725
 20
91.88933
 30
0.0
  0
VERTEX
  5
2751
100
AcDbEntity
  8
A-HATCH
100
AcDbVertex
100
AcDb2dVertex
 10
-7.541596
 20
91.937628
 30
0.0
  0
VERTEX
  5
2752
100
AcDbEntity
  8
A-HATCH
100
AcDbVertex
100
AcDb2dVertex
 10
-7.822445
 20
91.978366
 30
0.0
  0
VERTEX
  5
2753
100
AcDbEntity
  8
A-HATCH
100
AcDbVertex
100
AcDb2dVertex
 10
-8.078656
 20
92.009097
 30
0.0
  0
VERTEX
  5
2754
100
AcDbEntity
  8
A-HATCH
100
AcDbVertex
100
AcDb2dVertex
 10
-8.3038
 20
92.027975
 30
0.0
  0
VERTEX
  5
2755
100
AcDbEntity
  8
A-HATCH
100
AcDbVertex
100
AcDb2dVertex
 10
-8.500175
 20
92.035567
 30
0.0
  0
VERTEX
  5
2756
100
AcDbEntity
  8
A-HATCH
100
AcDbVertex
100
AcDb2dVertex
 10
-8.672262
 20
92.033042
 30
0.0
  0
VERTEX
  5
2757
100
AcDbEntity
  8
A-HATCH
100
AcDbVertex
100
AcDb2dVertex
 10
-8.824544
 20
92.021569
 30
0.0
  0
VERTEX
  5
2758
100
AcDbEntity
  8
A-HATCH
100
AcDbVertex
100
AcDb2dVertex
 10
-8.961502
 20
92.002318
 30
0.0
  0
VERTEX
  5
2759
100
AcDbEntity
  8
A-HATCH
100
AcDbVertex
100
AcDb2dVertex
 10
-9.087617
 20
91.976459
 30
0.0
  0
VERTEX
  5
275A
100
AcDbEntity
  8
A-HATCH
100
AcDbVertex
100
AcDb2dVertex
 10
-9.109139
 20
91.970834
 30
0.0
  0
SEQEND
  5
275B
100
AcDbEntity
  8
A-HATCH
  0
HATCH
  5
2762
100
AcDbEntity
  8
A-WALL-SHKE
100
AcDbHatch
 10
0.0
 20
0.0
 30
0.0
210
0.0
220
0.0
230
1.0
  2
AR-SAND
 70
     0
 71
     1
 91
        1
 92
        7
 72
     1
 73
     1
 93
        6
 10
-24.02573733402711
 20
106.8874324244527
 42
0.0
 10
-33.4789454229007
 20
106.8874324244527
 42
-0.0852626506093369
 10
-28.67344133359262
 20
105.9363138226608
 42
-0.2235546085461034
 10
-6.478487508652513
 20
83.45063801942689
 42
-0.035573814263972
 10
-5.821496892451079
 20
81.39951996334737
 42
0.0
 10
-5.821496892451079
 20
88.68319198287659
 42
0.0
 97
        6
330
655
330
657
330
65E
330
658
330
632
330
2484
 75
     0
 76
     1
 52
0.0
 41
0.5
 77
     0
 78
     4
 53
37.5
 43
126.431726
 44
84.642504
 45
-0.0314966790548041
 46
0.9634118845065792
 79
     6
 49
0.0
 49
-0.76
 49
0.0
 49
-0.85
 49
0.0
 49
-0.8125
 53
7.5
 43
126.431726
 44
84.642504
 45
0.8848883526338635
 46
1.41107303261487
 79
     6
 49
0.0
 49
-0.41
 49
0.0
 49
-0.685
 49
0.0
 49
-0.2625
 53
327.5
 43
125.816726
 44
84.642504
 45
1.557070930875747
 46
0.0028295267684823
 79
     6
 49
0.0
 49
-0.25
 49
0.0
 49
-0.9
 49
0.0
 49
-1.175
 53
317.5
 43
125.816726
 44
84.642504
 45
1.503063302286146
 46
0.4388377824671246
 79
     6
 49
0.0
 49
-0.125
 49
0.0
 49
-0.59
 49
0.0
 49
-0.675
 47
0.058199
 98
        1
 10
-23.378175
 20
104.959681
  0
LINE
  5
2764
100
AcDbEntity
  8
A-WALL-SHTH
100
AcDbLine
 10
17.562442
 20
64.137432
 30
0.0
 11
17.562442
 21
106.887432
 31
0.0
  0
LINE
  5
2766
100
AcDbEntity
  8
A-WALL-SHTH
100
AcDbLine
 10
18.062442
 20
64.137432
 30
0.0
 11
17.562442
 21
64.137432
 31
0.0
  0
TEXT
  5
276F
100
AcDbEntity
  8
A-TEXT
100
AcDbText
 10
-0.90296
 20
102.828602
 30
0.0
 40
1.0
  1
GYPSUM WALL BOARD
 41
0.81
100
AcDbText
  0
TEXT
  5
2770
100
AcDbEntity
  8
A-TEXT
100
AcDbText
 10
-0.90296
 20
108.112255
 30
0.0
 40
1.0
  1

 41
0.81
100
AcDbText
  0
TEXT
  5
2771
100
AcDbEntity
  8
A-TEXT
100
AcDbText
 10
-0.90296
 20
94.046512
 30
0.0
 40
1.0
  1
NAILABLE SHEATHING
 41
0.81
100
AcDbText
  0
TEXT
  5
2772
100
AcDbEntity
  8
A-TEXT
100
AcDbText
 10
-0.90296
 20
104.874159
 30
0.0
 40
1.0
  1

 41
0.81
100
AcDbText
  0
TEXT
  5
2773
100
AcDbEntity
  8
A-TEXT
100
AcDbText
 10
-0.90296
 20
87.754357
 30
0.0
 40
1.0
  1
TYPE X GYPSUM
 41
0.81
100
AcDbText
  0
TEXT
  5
2774
100
AcDbEntity
  8
A-TEXT
100
AcDbText
 10
-0.90296
 20
101.636064
 30
0.0
 40
1.0
  1

 41
0.81
100
AcDbText
  0
TEXT
  5
2775
100
AcDbEntity
  8
A-TEXT
100
AcDbText
 10
-0.90296
 20
81.429781
 30
0.0
 40
1.0
  1
MOISTURE BARRIER
 41
0.81
100
AcDbText
  0
TEXT
  5
2776
100
AcDbEntity
  8
A-TEXT
100
AcDbText
 10
-0.90296
 20
98.397969
 30
0.0
 40
1.0
  1

 41
0.81
100
AcDbText
  0
TEXT
  5
2777
100
AcDbEntity
  8
A-TEXT
100
AcDbText
 10
-0.90296
 20
68.932243
 30
0.0
 40
1.0
  1
SHAKERTOWN SIDING
 41
0.81
100
AcDbText
  0
TEXT
  5
2778
100
AcDbEntity
  8
A-TEXT
100
AcDbText
 10
-0.90296
 20
67.313195
 30
0.0
 40
1.0
  1
PANELS
 41
0.81
100
AcDbText
  0
LWPOLYLINE
  5
277B
100
AcDbEntity
  8
A-TEXT
100
AcDbPolyline
 90
        4
 70
     0
 10
-8.217468
 20
103.455457
 40
0.0
 41
0.5
 10
-6.717468
 20
103.455457
 40
0.0
 41
0.0
 10
-1.25757
 20
103.455457
 40
0.0
 41
0.0
 10
-1.25757
 20
103.455457
 40
0.0
 41
0.0
  0
LWPOLYLINE
  5
277E
100
AcDbEntity
  8
A-TEXT
100
AcDbPolyline
 90
        4
 70
     0
 10
21.562442
 20
103.455457
 40
0.0
 41
0.5
 10
20.062442
 20
103.455457
 40
0.0
 41
0.0
 10
13.002918
 20
103.455457
 40
0.0
 41
0.0
 10
13.002918
 20
103.455457
 40
0.0
 41
0.0
  0
LWPOLYLINE
  5
277F
100
AcDbEntity
  8
A-TEXT
100
AcDbPolyline
 90
        4
 70
     0
 10
-8.217468
 20
94.604518
 40
0.0
 41
0.5
 10
-6.717468
 20
94.604518
 40
0.0
 41
0.0
 10
-1.25757
 20
94.604518
 40
0.0
 41
0.0
 10
-1.25757
 20
94.604518
 40
0.0
 41
0.0
  0
LWPOLYLINE
  5
2780
100
AcDbEntity
  8
A-TEXT
100
AcDbPolyline
 90
        3
 70
     0
 10
17.42544
 20
94.604518
 40
0.0
 41
0.5
 10
15.92544
 20
94.604518
 40
0.0
 41
0.0
 10
12.126847
 20
94.604518
 40
0.0
 41
0.0
  0
LWPOLYLINE
  5
2782
100
AcDbEntity
  8
A-TEXT
100
AcDbPolyline
 90
        3
 70
     0
 10
-7.63342
 20
88.233788
 40
0.0
 41
0.5
 10
-6.13342
 20
88.233788
 40
0.0
 41
0.0
 10
-1.25757
 20
88.233788
 40
0.0
 41
0.0
  0
LWPOLYLINE
  5
2783
100
AcDbEntity
  8
A-TEXT
100
AcDbPolyline
 90
        3
 70
     0
 10
17.084745
 20
88.233788
 40
0.0
 41
0.5
 10
15.584745
 20
88.233788
 40
0.0
 41
0.0
 10
9.595976
 20
88.233788
 40
0.0
 41
0.0
  0
LWPOLYLINE
  5
2785
100
AcDbEntity
  8
A-TEXT
100
AcDbPolyline
 90
        3
 70
     0
 10
-7.63342
 20
81.955703
 40
0.0
 41
0.5
 10
-6.13342
 20
81.955703
 40
0.0
 41
0.0
 10
-1.25757
 20
81.955703
 40
0.0
 41
0.0
  0
LWPOLYLINE
  5
2786
100
AcDbEntity
  8
A-TEXT
100
AcDbPolyline
 90
        3
 70
     0
 10
17.084745
 20
81.955703
 40
0.0
 41
0.5
 10
15.584745
 20
81.955703
 40
0.0
 41
0.0
 10
11.293302
 20
81.955703
 40
0.0
 41
0.0
  0
LWPOLYLINE
  5
2787
100
AcDbEntity
  8
A-TEXT
100
AcDbPolyline
 90
        3
 70
     0
 10
-7.63342
 20
69.470073
 40
0.0
 41
0.5
 10
-6.13342
 20
69.470073
 40
0.0
 41
0.0
 10
-1.25757
 20
69.470073
 40
0.0
 41
0.0
  0
LWPOLYLINE
  5
2788
100
AcDbEntity
  8
A-TEXT
100
AcDbPolyline
 90
        3
 70
     0
 10
16.449372
 20
67.777107
 40
0.0
 41
0.5
 10
14.949372
 20
67.777107
 40
0.0
 41
0.0
 10
4.233605
 20
67.777107
 40
0.0
 41
0.0
  0
INSERT
  5
27E7
100
AcDbEntity
  8
A-TEXT
100
AcDbBlockReference
  2
NEWCOLOR
 10
0.0
 20
0.0
 30
0.0
  0
ENDSEC
  0
SECTION
  2
OBJECTS
  0
DICTIONARY
  5
1A
100
AcDbDictionary
  3
ACAD_GROUP
350
18
  3
ACAD_MLINESTYLE
350
19
  3
ACDBVARIABLEDICTIONARY
350
661
  0
DICTIONARY
  5
18
102
{ACAD_REACTORS
330
1A
102
}
100
AcDbDictionary
  0
DICTIONARY
  5
19
102
{ACAD_REACTORS
330
1A
102
}
100
AcDbDictionary
  3
STANDARD
350
1C
  0
DICTIONARY
  5
661
102
{ACAD_REACTORS
330
1A
102
}
100
AcDbDictionary
  3
SORTENTS
350
662
  0
MLINESTYLE
  5
1C
102
{ACAD_REACTORS
330
19
102
}
100
AcDbMlineStyle
  2
STANDARD
 70
     0
  3

 62
     0
 51
90.0
 52
90.0
 71
     2
 49
0.5
 62
   256
  6
BYLAYER
 49
-0.5
 62
   256
  6
BYLAYER
  0
DICTIONARYVAR
  5
662
102
{ACAD_REACTORS
330
661
102
}
100
DictionaryVariables
280
     0
  1
96
  0
ENDSEC
  0
EOF
