  0
SECTION
  2
HEADER
  9
$ACADVER
  1
AC1015
  9
$ACADMAINTVER
 70
    11
  9
$DWGCODEPAGE
  3
ANSI_1252
  9
$INSBASE
 10
0.0
 20
0.0
 30
0.0
  9
$EXTMIN
 10
37.93889990232514
 20
26.00799345838854
 30
0.0
  9
$EXTMAX
 10
149.6439838935004
 20
77.67220541663931
 30
0.0
  9
$LIMMIN
 10
0.0
 20
0.0
  9
$LIMMAX
 10
204.0
 20
132.0
  9
$ORTHOMODE
 70
     0
  9
$REGENMODE
 70
     0
  9
$FILLMODE
 70
     1
  9
$QTEXTMODE
 70
     0
  9
$MIRRTEXT
 70
     1
  9
$LTSCALE
 40
12.0
  9
$ATTMODE
 70
     1
  9
$TEXTSIZE
 40
1.0
  9
$TRACEWID
 40
6.0
  9
$TEXTSTYLE
  7
ROMANS
  9
$CLAYER
  8
A-TEXT
  9
$CELTYPE
  6
BYLAYER
  9
$CECOLOR
 62
   256
  9
$CELTSCALE
 40
1.0
  9
$DISPSILH
 70
     0
  9
$DIMSCALE
 40
0.0
  9
$DIMASZ
 40
0.125
  9
$DIMEXO
 40
0.0625
  9
$DIMDLI
 40
0.0
  9
$DIMRND
 40
0.125
  9
$DIMDLE
 40
0.0
  9
$DIMEXE
 40
0.0625
  9
$DIMTP
 40
0.0
  9
$DIMTM
 40
0.0
  9
$DIMTXT
 40
0.125
  9
$DIMCEN
 40
0.09375
  9
$DIMTSZ
 40
0.0
  9
$DIMTOL
 70
     0
  9
$DIMLIM
 70
     0
  9
$DIMTIH
 70
     0
  9
$DIMTOH
 70
     0
  9
$DIMSE1
 70
     0
  9
$DIMSE2
 70
     0
  9
$DIMTAD
 70
     1
  9
$DIMZIN
 70
     3
  9
$DIMBLK
  1

  9
$DIMASO
 70
     0
  9
$DIMSHO
 70
     1
  9
$DIMPOST
  1
 
  9
$DIMAPOST
  1

  9
$DIMALT
 70
     0
  9
$DIMALTD
 70
     2
  9
$DIMALTF
 40
25.4
  9
$DIMLFAC
 40
1.0
  9
$DIMTOFL
 70
     1
  9
$DIMTVP
 40
0.0
  9
$DIMTIX
 70
     1
  9
$DIMSOXD
 70
     0
  9
$DIMSAH
 70
     0
  9
$DIMBLK1
  1

  9
$DIMBLK2
  1

  9
$DIMSTYLE
  2
FACDIM
  9
$DIMCLRD
 70
     3
  9
$DIMCLRE
 70
     3
  9
$DIMCLRT
 70
   256
  9
$DIMTFAC
 40
0.8
  9
$DIMGAP
 40
0.0312
  9
$DIMJUST
 70
     0
  9
$DIMSD1
 70
     0
  9
$DIMSD2
 70
     0
  9
$DIMTOLJ
 70
     1
  9
$DIMTZIN
 70
     0
  9
$DIMALTZ
 70
     0
  9
$DIMALTTZ
 70
     0
  9
$DIMUPT
 70
     0
  9
$DIMDEC
 70
     4
  9
$DIMTDEC
 70
     4
  9
$DIMALTU
 70
     2
  9
$DIMALTTD
 70
     2
  9
$DIMTXSTY
  7
ROMANS
  9
$DIMAUNIT
 70
     0
  9
$DIMADEC
 70
     0
  9
$DIMALTRND
 40
0.0
  9
$DIMAZIN
 70
     0
  9
$DIMDSEP
 70
    46
  9
$DIMATFIT
 70
     3
  9
$DIMFRAC
 70
     2
  9
$DIMLDRBLK
  1

  9
$DIMLUNIT
 70
     4
  9
$DIMLWD
 70
    -2
  9
$DIMLWE
 70
    -2
  9
$DIMTMOVE
 70
     0
  9
$LUNITS
 70
     4
  9
$LUPREC
 70
     4
  9
$SKETCHINC
 40
0.1
  9
$FILLETRAD
 40
0.0
  9
$AUNITS
 70
     0
  9
$AUPREC
 70
     2
  9
$MENU
  1
.
  9
$ELEVATION
 40
0.0
  9
$PELEVATION
 40
0.0
  9
$THICKNESS
 40
0.0
  9
$LIMCHECK
 70
     0
  9
$CHAMFERA
 40
0.5
  9
$CHAMFERB
 40
0.5
  9
$CHAMFERC
 40
1.0
  9
$CHAMFERD
 40
0.0
  9
$SKPOLY
 70
     1
  9
$TDCREATE
 40
2450984.596445845
  9
$TDUCREATE
 40
2450984.888112511
  9
$TDUPDATE
 40
2452025.485317245
  9
$TDUUPDATE
 40
2452025.776983912
  9
$TDINDWG
 40
0.5928747454
  9
$TDUSRTIMER
 40
0.5928747454
  9
$USRTIMER
 70
     1
  9
$ANGBASE
 50
0.0
  9
$ANGDIR
 70
     0
  9
$PDMODE
 70
     0
  9
$PDSIZE
 40
0.0
  9
$PLINEWID
 40
0.0
  9
$SPLFRAME
 70
     0
  9
$SPLINETYPE
 70
     6
  9
$SPLINESEGS
 70
     8
  9
$HANDSEED
  5
133D
  9
$SURFTAB1
 70
     6
  9
$SURFTAB2
 70
     6
  9
$SURFTYPE
 70
     6
  9
$SURFU
 70
     6
  9
$SURFV
 70
     6
  9
$UCSBASE
  2

  9
$UCSNAME
  2

  9
$UCSORG
 10
0.0
 20
0.0
 30
0.0
  9
$UCSXDIR
 10
1.0
 20
0.0
 30
0.0
  9
$UCSYDIR
 10
0.0
 20
1.0
 30
0.0
  9
$UCSORTHOREF
  2

  9
$UCSORTHOVIEW
 70
     0
  9
$UCSORGTOP
 10
0.0
 20
0.0
 30
0.0
  9
$UCSORGBOTTOM
 10
0.0
 20
0.0
 30
0.0
  9
$UCSORGLEFT
 10
0.0
 20
0.0
 30
0.0
  9
$UCSORGRIGHT
 10
0.0
 20
0.0
 30
0.0
  9
$UCSORGFRONT
 10
0.0
 20
0.0
 30
0.0
  9
$UCSORGBACK
 10
0.0
 20
0.0
 30
0.0
  9
$PUCSBASE
  2

  9
$PUCSNAME
  2

  9
$PUCSORG
 10
0.0
 20
0.0
 30
0.0
  9
$PUCSXDIR
 10
1.0
 20
0.0
 30
0.0
  9
$PUCSYDIR
 10
0.0
 20
1.0
 30
0.0
  9
$PUCSORTHOREF
  2

  9
$PUCSORTHOVIEW
 70
     0
  9
$PUCSORGTOP
 10
0.0
 20
0.0
 30
0.0
  9
$PUCSORGBOTTOM
 10
0.0
 20
0.0
 30
0.0
  9
$PUCSORGLEFT
 10
0.0
 20
0.0
 30
0.0
  9
$PUCSORGRIGHT
 10
0.0
 20
0.0
 30
0.0
  9
$PUCSORGFRONT
 10
0.0
 20
0.0
 30
0.0
  9
$PUCSORGBACK
 10
0.0
 20
0.0
 30
0.0
  9
$USERI1
 70
     0
  9
$USERI2
 70
     0
  9
$USERI3
 70
     0
  9
$USERI4
 70
     0
  9
$USERI5
 70
     0
  9
$USERR1
 40
0.0
  9
$USERR2
 40
0.0
  9
$USERR3
 40
0.0
  9
$USERR4
 40
0.0
  9
$USERR5
 40
0.0
  9
$WORLDVIEW
 70
     1
  9
$SHADEDGE
 70
     3
  9
$SHADEDIF
 70
    70
  9
$TILEMODE
 70
     1
  9
$MAXACTVP
 70
    48
  9
$PINSBASE
 10
0.0
 20
0.0
 30
0.0
  9
$PLIMCHECK
 70
     0
  9
$PEXTMIN
 10
1.000000000000000E+20
 20
1.000000000000000E+20
 30
1.000000000000000E+20
  9
$PEXTMAX
 10
-1.000000000000000E+20
 20
-1.000000000000000E+20
 30
-1.000000000000000E+20
  9
$PLIMMIN
 10
0.0
 20
0.0
  9
$PLIMMAX
 10
12.0
 20
9.0
  9
$UNITMODE
 70
     0
  9
$VISRETAIN
 70
     1
  9
$PLINEGEN
 70
     0
  9
$PSLTSCALE
 70
     1
  9
$TREEDEPTH
 70
  3020
  9
$CMLSTYLE
  2
STANDARD
  9
$CMLJUST
 70
     0
  9
$CMLSCALE
 40
1.0
  9
$PROXYGRAPHICS
 70
     1
  9
$MEASUREMENT
 70
     0
  9
$CELWEIGHT
370
    -1
  9
$ENDCAPS
280
     0
  9
$JOINSTYLE
280
     0
  9
$LWDISPLAY
290
     0
  9
$INSUNITS
 70
     0
  9
$HYPERLINKBASE
  1

  9
$STYLESHEET
  1
civil.ctb
  9
$XEDIT
290
     1
  9
$CEPSNTYPE
380
     0
  9
$PSTYLEMODE
290
     1
  9
$FINGERPRINTGUID
  2
{C18903DC-0CCC-11D5-9124-0050DACECBED}
  9
$VERSIONGUID
  2
{6FA821D7-1F0B-11D5-913A-0050DACECBED}
  9
$EXTNAMES
290
     1
  9
$PSVPSCALE
 40
0.0
  9
$OLESTARTUP
290
     0
  0
ENDSEC
  0
SECTION
  2
CLASSES
  0
CLASS
  1
LWPOLYLINE
  2
AcDbPolyline
  3
AutoCAD 2000
 90
    32768
280
     0
281
     1
  0
CLASS
  1
DICTIONARYVAR
  2
AcDbDictionaryVar
  3
AutoCAD 2000
 90
        0
280
     0
281
     0
  0
CLASS
  1
HATCH
  2
AcDbHatch
  3
AutoCAD 2000
 90
    32768
280
     0
281
     1
  0
CLASS
  1
XRECORD
  2
AcDbXrecord
  3
AutoCAD 2000
 90
    32768
280
     0
281
     0
  0
CLASS
  1
ACDBDICTIONARYWDFLT
  2
AcDbDictionaryWithDefault
  3
AutoCAD 2000
 90
        0
280
     0
281
     0
  0
CLASS
  1
ACDBPLACEHOLDER
  2
AcDbPlaceHolder
  3
AutoCAD 2000
 90
        0
280
     0
281
     0
  0
CLASS
  1
LAYOUT
  2
AcDbLayout
  3
AutoCAD 2000
 90
        0
280
     0
281
     0
  0
CLASS
  1
LONG_TRANSACTION
  2
AcDbLongTransaction
  3
AutoCAD 2000
 90
    32768
280
     0
281
     0
  0
CLASS
  1
LWPOLYLINE
  2
AcDbPolyline
  3
AutoCAD 2000
 90
    32768
280
     0
281
     1
  0
CLASS
  1
HATCH
  2
AcDbHatch
  3
AutoCAD 2000
 90
    32768
280
     0
281
     1
  0
CLASS
  1
XRECORD
  2
AcDbXrecord
  3
AutoCAD 2000
 90
    32768
280
     0
281
     0
  0
ENDSEC
  0
SECTION
  2
TABLES
  0
TABLE
  2
VPORT
  5
12
330
0
100
AcDbSymbolTable
 70
     2
  0
VPORT
  5
133C
330
12
100
AcDbSymbolTableRecord
100
AcDbViewportTableRecord
  2
*Active
 70
     0
 10
0.0
 20
0.0
 11
1.0
 21
1.0
 12
93.79779099276962
 22
51.84045439241507
 13
126.4317257399989
 23
84.64250446153608
 14
0.5
 24
0.5
 15
12.0
 25
12.0
 16
0.0
 26
0.0
 36
1.0
 17
0.0
 27
0.0
 37
0.0
 40
60.44587014079766
 41
1.859259259259259
 42
50.0
 43
0.0
 44
0.0
 50
0.0
 51
0.0
 71
     0
 72
  2000
 73
     1
 74
     1
 75
     0
 76
     0
 77
     0
 78
     1
281
     0
 65
     1
110
0.0
120
0.0
130
0.0
111
1.0
121
0.0
131
0.0
112
0.0
122
1.0
132
0.0
 79
     0
146
0.0
  0
ENDTAB
  0
TABLE
  2
LTYPE
  5
D
330
0
100
AcDbSymbolTable
 70
     2
  0
LTYPE
  5
E
330
D
100
AcDbSymbolTableRecord
100
AcDbLinetypeTableRecord
  2
BYBLOCK
 70
     0
  3

 72
    65
 73
     0
 40
0.0
  0
LTYPE
  5
F
330
D
100
AcDbSymbolTableRecord
100
AcDbLinetypeTableRecord
  2
BYLAYER
 70
     0
  3

 72
    65
 73
     0
 40
0.0
  0
LTYPE
  5
5
330
D
100
AcDbSymbolTableRecord
100
AcDbLinetypeTableRecord
  2
CONTINUOUS
 70
     0
  3
Solid line
 72
    65
 73
     0
 40
0.0
  0
LTYPE
  5
11CF
330
D
100
AcDbSymbolTableRecord
100
AcDbLinetypeTableRecord
  2
HIDDEN2
 70
     0
  3
Hidden (.5x) _ _ _ _ _ _ _ _ _ _ _ _ _ _ _ _ _
 72
    65
 73
     2
 40
0.1875
 49
0.125
 74
     0
 49
-0.0625
 74
     0
  0
ENDTAB
  0
TABLE
  2
LAYER
  5
A
330
0
100
AcDbSymbolTable
 70
     8
  0
LAYER
  5
4
330
A
100
AcDbSymbolTableRecord
100
AcDbLayerTableRecord
  2
0
 70
     0
 62
     7
  6
CONTINUOUS
370
    -3
390
12CF
  0
LAYER
  5
26
330
A
100
AcDbSymbolTableRecord
100
AcDbLayerTableRecord
  2
A-WALL-SHKE
 70
     0
 62
     5
  6
CONTINUOUS
370
    -3
390
12CF
  0
LAYER
  5
302
330
A
100
AcDbSymbolTableRecord
100
AcDbLayerTableRecord
  2
A-WALL-STUD
 70
     0
 62
     1
  6
CONTINUOUS
370
    -3
390
12CF
  0
LAYER
  5
24
330
A
100
AcDbSymbolTableRecord
100
AcDbLayerTableRecord
  2
A-WALL-SHTH
 70
     0
 62
   232
  6
CONTINUOUS
370
    -3
390
12CF
  0
LAYER
  5
1B
330
A
100
AcDbSymbolTableRecord
100
AcDbLayerTableRecord
  2
A-HATCH
 70
     0
 62
   154
  6
CONTINUOUS
370
    -3
390
12CF
  0
LAYER
  5
11DB
330
A
100
AcDbSymbolTableRecord
100
AcDbLayerTableRecord
  2
A-TEXT
 70
     0
 62
     1
  6
CONTINUOUS
370
    -3
390
12CF
  0
LAYER
  5
11EE
330
A
100
AcDbSymbolTableRecord
100
AcDbLayerTableRecord
  2
DEFPOINTS
 70
     0
 62
     7
  6
CONTINUOUS
290
     0
370
    -3
390
12CF
  0
LAYER
  5
1261
330
A
100
AcDbSymbolTableRecord
100
AcDbLayerTableRecord
  2
NAILS
 70
     0
 62
     5
  6
CONTINUOUS
370
    -3
390
12CF
  0
ENDTAB
  0
TABLE
  2
STYLE
  5
B
330
0
100
AcDbSymbolTable
 70
     3
  0
STYLE
  5
C
330
B
100
AcDbSymbolTableRecord
100
AcDbTextStyleTableRecord
  2
STANDARD
 70
     0
 40
0.0
 41
0.8100000000000001
 50
0.0
 71
     0
 42
1.0
  3
romans.shx
  4

  0
STYLE
  5
11CE
330
B
100
AcDbSymbolTableRecord
100
AcDbTextStyleTableRecord
  2

 70
     1
 40
0.0
 41
1.0
 50
0.0
 71
     0
 42
1.5
  3
ltypeshp.shx
  4

  0
STYLE
  5
1247
330
B
100
AcDbSymbolTableRecord
100
AcDbTextStyleTableRecord
  2
ROMANS
 70
     0
 40
0.0
 41
0.8100000000000001
 50
0.0
 71
     0
 42
1.0
  3
romans.shx
  4

  0
ENDTAB
  0
TABLE
  2
VIEW
  5
10
330
0
100
AcDbSymbolTable
 70
     0
  0
ENDTAB
  0
TABLE
  2
UCS
  5
11
330
0
100
AcDbSymbolTable
 70
     0
  0
ENDTAB
  0
TABLE
  2
APPID
  5
14
330
0
100
AcDbSymbolTable
 70
     5
  0
APPID
  5
15
330
14
100
AcDbSymbolTableRecord
100
AcDbRegAppTableRecord
  2
ACAD
 70
     0
  0
APPID
  5
4DF
330
14
100
AcDbSymbolTableRecord
100
AcDbRegAppTableRecord
  2
ICONTOOL_206_545-6877
 70
     0
  0
APPID
  5
4E0
330
14
100
AcDbSymbolTableRecord
100
AcDbRegAppTableRecord
  2
RMAINSERT_206_545-6877
 70
     0
  0
APPID
  5
4E1
330
14
100
AcDbSymbolTableRecord
100
AcDbRegAppTableRecord
  2
RMASCALE_206_545-6877
 70
     0
  0
APPID
  5
4E2
330
14
100
AcDbSymbolTableRecord
100
AcDbRegAppTableRecord
  2
RMACOMMAND_206_545-6877
 70
     0
  0
ENDTAB
  0
TABLE
  2
DIMSTYLE
  5
16
330
0
100
AcDbSymbolTable
 70
     4
100
AcDbDimStyleTable
 71
     0
  0
DIMSTYLE
105
1D
330
16
100
AcDbSymbolTableRecord
100
AcDbDimStyleTableRecord
  2
STANDARD
 70
     0
340
C
  0
DIMSTYLE
105
1248
330
16
100
AcDbSymbolTableRecord
100
AcDbDimStyleTableRecord
  2
FACDIM_METRIC
 70
     0
  3
 mm
 40
0.0
 41
0.125
 43
0.0
 44
0.0625
 45
0.125
 73
     0
 74
     0
 77
     1
 78
     3
140
0.125
141
0.09375
146
0.8
147
0.0
172
     1
174
     1
176
     3
177
     3
178
   256
276
     2
277
     4
340
1247
  0
DIMSTYLE
105
1249
330
16
100
AcDbSymbolTableRecord
100
AcDbDimStyleTableRecord
  2
FACDIML
 70
     0
  3
 mm
 40
0.0
 41
0.125
 43
0.0
 44
0.0625
 45
0.125
 73
     0
 74
     0
 78
     3
140
0.125
141
0.09375
146
0.8
147
0.0625
172
     1
174
     1
176
     3
177
     3
178
   256
276
     2
277
     4
340
1247
  0
DIMSTYLE
105
124A
330
16
100
AcDbSymbolTableRecord
100
AcDbDimStyleTableRecord
  2
FACDIM
 70
     0
  3
 
 40
0.0
 41
0.125
 43
0.0
 44
0.0625
 45
0.125
 73
     0
 74
     0
 77
     1
 78
     3
140
0.125
141
0.09375
146
0.8
147
0.0312
172
     1
174
     1
176
     3
177
     3
178
   256
276
     2
277
     4
340
1247
  0
ENDTAB
  0
TABLE
  2
BLOCK_RECORD
  5
1
330
0
100
AcDbSymbolTable
 70
     2
  0
BLOCK_RECORD
  5
2
102
{ACAD_XDICTIONARY
360
130A
102
}
330
1
100
AcDbSymbolTableRecord
100
AcDbBlockTableRecord
  2
*MODEL_SPACE
340
12D2
  0
BLOCK_RECORD
  5
7
102
{ACAD_XDICTIONARY
360
130C
102
}
330
1
100
AcDbSymbolTableRecord
100
AcDbBlockTableRecord
  2
*PAPER_SPACE
340
12D3
  0
BLOCK_RECORD
  5
11DC
330
1
100
AcDbSymbolTableRecord
100
AcDbBlockTableRecord
  2
FAST
340
0
  0
BLOCK_RECORD
  5
124B
330
1
100
AcDbSymbolTableRecord
100
AcDbBlockTableRecord
  2
NEWCOLOR
340
0
102
{BLKREFS
331
124E
102
}
  0
ENDTAB
  0
ENDSEC
  0
SECTION
  2
BLOCKS
  0
BLOCK
  5
3
330
2
100
AcDbEntity
  8
0
100
AcDbBlockBegin
  2
*MODEL_SPACE
 70
     0
 10
0.0
 20
0.0
 30
0.0
  3
*MODEL_SPACE
  1

  0
ENDBLK
  5
6
330
2
100
AcDbEntity
  8
0
100
AcDbBlockEnd
  0
BLOCK
  5
8
330
7
100
AcDbEntity
 67
     1
  8
0
100
AcDbBlockBegin
  2
*PAPER_SPACE
 70
     0
 10
0.0
 20
0.0
 30
0.0
  3
*PAPER_SPACE
  1

  0
ENDBLK
  5
9
330
7
100
AcDbEntity
 67
     1
  8
0
100
AcDbBlockEnd
  0
BLOCK
  5
11DF
330
11DC
100
AcDbEntity
  8
0
100
AcDbBlockBegin
  2
FAST
 70
     0
 10
0.0
 20
0.0
 30
0.0
  3
FAST
  1

  0
LINE
  5
11DD
330
11DC
100
AcDbEntity
  8
A-HATCH
 62
     5
100
AcDbLine
 10
-0.1528034950512165
 20
0.0
 30
0.0
 11
1.419561285477016
 21
0.0
 31
0.0
  0
LINE
  5
11DE
330
11DC
100
AcDbEntity
  8
A-HATCH
 62
     5
100
AcDbLine
 10
0.0
 20
0.1875
 30
0.0
 11
0.0
 21
-0.1875
 31
0.0
  0
ENDBLK
  5
11E0
330
11DC
100
AcDbEntity
  8
0
100
AcDbBlockEnd
  0
BLOCK
  5
124C
330
124B
100
AcDbEntity
  8
0
100
AcDbBlockBegin
  2
NEWCOLOR
 70
     0
 10
0.0
 20
0.0
 30
0.0
  3
NEWCOLOR
  1

  0
ENDBLK
  5
124D
330
124B
100
AcDbEntity
  8
0
100
AcDbBlockEnd
  0
ENDSEC
  0
SECTION
  2
ENTITIES
  0
LINE
  5
9D5
330
2
100
AcDbEntity
  8
A-WALL-SHKE
100
AcDbLine
 10
107.7620676353923
 20
47.30566067013984
 30
0.0
 11
39.12106603579156
 21
47.30566067013984
 31
0.0
  0
LINE
  5
9D7
330
2
100
AcDbEntity
  8
A-WALL-SHKE
100
AcDbLine
 10
114.9495676353923
 20
34.18066067013984
 30
0.0
 11
40.30323216925796
 21
34.18066067013984
 31
0.0
  0
LINE
  5
A29
102
{ACAD_REACTORS
330
12CA
102
}
330
2
100
AcDbEntity
  8
A-WALL-STUD
100
AcDbLine
 10
127.5120676353923
 20
73.55566067013985
 30
0.0
 11
91.76206763539232
 21
73.55566067013983
 31
0.0
  0
ARC
  5
A2A
102
{ACAD_REACTORS
330
12CA
102
}
330
2
100
AcDbEntity
  8
A-WALL-SHTH
100
AcDbCircle
 10
92.89691135693884
 20
40.76753406898784
 30
0.0
 40
33.02612142882937
100
AcDbArc
 50
16.80836337663711
 51
83.11738064582796
  0
ARC
  5
A2C
102
{ACAD_REACTORS
330
12CA
102
}
330
2
100
AcDbEntity
  8
A-WALL-SHTH
100
AcDbCircle
 10
95.57641124064019
 20
58.71684328997287
 30
0.0
 40
14.89376770955928
100
AcDbArc
 50
1.256631499679312
 51
85.07672483377588
  0
ARC
  5
A2D
102
{ACAD_REACTORS
330
12CA
102
}
330
2
100
AcDbEntity
  8
A-WALL-SHTH
100
AcDbCircle
 10
96.48885460245322
 20
59.09223743350516
 30
0.0
 40
14.46804739394041
100
AcDbArc
 50
1.981889854563888
 51
88.55135978762985
  0
LINE
  5
A2E
330
2
100
AcDbEntity
  8
A-WALL-SHKE
100
AcDbLine
 10
107.7620676353923
 20
47.30566067013984
 30
0.0
 11
98.94956763539234
 21
47.30566067013984
 31
0.0
  0
LINE
  5
A31
330
2
100
AcDbEntity
  8
A-WALL-SHKE
100
AcDbLine
 10
91.76206763539232
 20
73.55566067013985
 30
0.0
 11
37.93889990232514
 21
73.55566067013985
 31
0.0
  0
LINE
  5
A33
330
2
100
AcDbEntity
  8
A-WALL-SHKE
100
AcDbLine
 10
91.76206763539234
 20
60.43066067013984
 30
0.0
 11
37.93889990232514
 21
60.43066067013983
 31
0.0
  0
LINE
  5
A35
330
2
100
AcDbEntity
  8
A-WALL-SHKE
100
AcDbLine
 10
39.12106603579155
 20
60.43066067013984
 30
0.0
 11
39.12106603579156
 21
47.30566067013984
 31
0.0
  0
LINE
  5
A37
330
2
100
AcDbEntity
  8
A-WALL-SHKE
100
AcDbLine
 10
40.30323216925797
 20
47.30566067013984
 30
0.0
 11
40.30323216925796
 21
34.18066067013984
 31
0.0
  0
LINE
  5
A38
330
2
100
AcDbEntity
  8
A-WALL-SHKE
100
AcDbLine
 10
37.93889990232514
 20
73.55566067013985
 30
0.0
 11
37.93889990232514
 21
60.43066067013983
 31
0.0
  0
LINE
  5
A3E
330
2
100
AcDbEntity
  8
A-WALL-STUD
100
AcDbLine
 10
43.01206763539233
 20
73.55566067013985
 30
0.0
 11
43.01206763539233
 21
74.55566067013982
 31
0.0
  0
LINE
  5
A3F
330
2
100
AcDbEntity
  8
A-WALL-STUD
100
AcDbLine
 10
92.51206763539233
 20
73.55566067013985
 30
0.0
 11
92.51206763539233
 21
74.55566067013984
 31
0.0
  0
LINE
  5
A40
330
2
100
AcDbEntity
  8
A-WALL-STUD
100
AcDbLine
 10
91.01206763539233
 20
73.55566067013983
 30
0.0
 11
91.01206763539233
 21
74.55566067013984
 31
0.0
  0
LINE
  5
A41
330
2
100
AcDbEntity
  8
A-WALL-STUD
100
AcDbLine
 10
75.01206763539233
 20
73.55566067013983
 30
0.0
 11
75.01206763539233
 21
74.55566067013984
 31
0.0
  0
LINE
  5
A42
330
2
100
AcDbEntity
  8
A-WALL-STUD
100
AcDbLine
 10
76.51206763539232
 20
73.55566067013985
 30
0.0
 11
76.51206763539232
 21
74.55566067013984
 31
0.0
  0
LINE
  5
A43
330
2
100
AcDbEntity
  8
A-WALL-STUD
100
AcDbLine
 10
59.01206763539232
 20
73.55566067013983
 30
0.0
 11
59.01206763539232
 21
74.55566067013984
 31
0.0
  0
LINE
  5
A44
330
2
100
AcDbEntity
  8
A-WALL-STUD
100
AcDbLine
 10
60.51206763539233
 20
73.55566067013983
 30
0.0
 11
60.51206763539233
 21
74.55566067013984
 31
0.0
  0
LINE
  5
A45
330
2
100
AcDbEntity
  8
A-WALL-STUD
100
AcDbLine
 10
44.51206763539231
 20
73.55566067013983
 30
0.0
 11
44.51206763539232
 21
74.55566067013986
 31
0.0
  0
LINE
  5
A48
330
2
100
AcDbEntity
  8
A-WALL-SHKE
100
AcDbLine
 10
46.74606603579155
 20
60.43066067013984
 30
0.0
 11
46.74606603579156
 21
47.30566067013984
 31
0.0
  0
LINE
  5
A49
330
2
100
AcDbEntity
  8
A-WALL-SHKE
100
AcDbLine
 10
46.55856603579155
 20
60.43066067013984
 30
0.0
 11
46.55856603579155
 21
47.30566067013984
 31
0.0
  0
LINE
  5
A4A
330
2
100
AcDbEntity
  8
A-WALL-SHKE
100
AcDbLine
 10
54.12639990232514
 20
60.43066067013984
 30
0.0
 11
54.12639990232515
 21
47.30566067013984
 31
0.0
  0
LINE
  5
A4B
330
2
100
AcDbEntity
  8
A-WALL-SHKE
100
AcDbLine
 10
53.93889990232514
 20
60.43066067013984
 30
0.0
 11
53.93889990232515
 21
47.30566067013984
 31
0.0
  0
LINE
  5
A4E
330
2
100
AcDbEntity
  8
A-WALL-SHKE
100
AcDbLine
 10
61.37639990232514
 20
60.43066067013984
 30
0.0
 11
61.37639990232514
 21
47.30566067013984
 31
0.0
  0
LINE
  5
A4F
330
2
100
AcDbEntity
  8
A-WALL-SHKE
100
AcDbLine
 10
61.56389990232514
 20
60.43066067013984
 30
0.0
 11
61.56389990232515
 21
47.30566067013984
 31
0.0
  0
LINE
  5
A54
330
2
100
AcDbEntity
  8
A-WALL-SHKE
100
AcDbLine
 10
68.75673376885874
 20
60.43066067013984
 30
0.0
 11
68.75673376885874
 21
47.30566067013984
 31
0.0
  0
LINE
  5
A55
330
2
100
AcDbEntity
  8
A-WALL-SHKE
100
AcDbLine
 10
68.94423376885874
 20
60.43066067013984
 30
0.0
 11
68.94423376885874
 21
47.30566067013984
 31
0.0
  0
LINE
  5
A62
330
2
100
AcDbEntity
  8
A-WALL-SHKE
100
AcDbLine
 10
44.67823216925797
 20
47.30566067013984
 30
0.0
 11
44.67823216925796
 21
34.18066067013984
 31
0.0
  0
LINE
  5
A63
330
2
100
AcDbEntity
  8
A-WALL-SHKE
100
AcDbLine
 10
44.86573216925797
 20
47.30566067013984
 30
0.0
 11
44.86573216925797
 21
34.18066067013984
 31
0.0
  0
LINE
  5
A65
330
2
100
AcDbEntity
  8
A-WALL-SHKE
100
AcDbLine
 10
51.30323216925797
 20
47.30566067013984
 30
0.0
 11
51.30323216925797
 21
34.18066067013984
 31
0.0
  0
LINE
  5
A66
330
2
100
AcDbEntity
  8
A-WALL-SHKE
100
AcDbLine
 10
51.49073216925797
 20
47.30566067013984
 30
0.0
 11
51.49073216925796
 21
34.18066067013984
 31
0.0
  0
LINE
  5
A71
330
2
100
AcDbEntity
  8
A-WALL-SHKE
100
AcDbLine
 10
59.68356603579156
 20
47.30566067013984
 30
0.0
 11
59.68356603579156
 21
34.18066067013984
 31
0.0
  0
LINE
  5
A72
330
2
100
AcDbEntity
  8
A-WALL-SHKE
100
AcDbLine
 10
59.49606603579155
 20
47.30566067013984
 30
0.0
 11
59.49606603579155
 21
34.18066067013984
 31
0.0
  0
LINE
  5
A77
330
2
100
AcDbEntity
  8
A-WALL-SHKE
100
AcDbLine
 10
66.30856603579156
 20
47.30566067013984
 30
0.0
 11
66.30856603579156
 21
34.18066067013984
 31
0.0
  0
LINE
  5
A78
330
2
100
AcDbEntity
  8
A-WALL-SHKE
100
AcDbLine
 10
66.12106603579156
 20
47.30566067013984
 30
0.0
 11
66.12106603579156
 21
34.18066067013984
 31
0.0
  0
LINE
  5
A79
330
2
100
AcDbEntity
  8
A-WALL-SHKE
100
AcDbLine
 10
48.93889990232514
 20
73.55566067013985
 30
0.0
 11
48.93889990232515
 21
60.43066067013985
 31
0.0
  0
LINE
  5
A7A
330
2
100
AcDbEntity
  8
A-WALL-SHKE
100
AcDbLine
 10
49.12639990232515
 20
73.55566067013985
 30
0.0
 11
49.12639990232515
 21
60.43066067013985
 31
0.0
  0
LINE
  5
A7F
330
2
100
AcDbEntity
  8
A-WALL-SHKE
100
AcDbLine
 10
42.31389990232513
 20
73.55566067013985
 30
0.0
 11
42.31389990232514
 21
60.43066067013985
 31
0.0
  0
LINE
  5
A80
330
2
100
AcDbEntity
  8
A-WALL-SHKE
100
AcDbLine
 10
42.50139990232514
 20
73.55566067013985
 30
0.0
 11
42.50139990232514
 21
60.43066067013985
 31
0.0
  0
LINE
  5
A91
330
2
100
AcDbEntity
  8
A-WALL-SHKE
100
AcDbLine
 10
71.94956763539233
 20
73.55566067013985
 30
0.0
 11
71.94956763539233
 21
60.43066067013985
 31
0.0
  0
LINE
  5
A92
330
2
100
AcDbEntity
  8
A-WALL-SHKE
100
AcDbLine
 10
72.13706763539232
 20
73.55566067013985
 30
0.0
 11
72.13706763539232
 21
60.43066067013985
 31
0.0
  0
LINE
  5
A95
330
2
100
AcDbEntity
  8
A-WALL-SHKE
100
AcDbLine
 10
63.75673376885874
 20
73.55566067013985
 30
0.0
 11
63.75673376885874
 21
60.43066067013985
 31
0.0
  0
LINE
  5
A96
330
2
100
AcDbEntity
  8
A-WALL-SHKE
100
AcDbLine
 10
63.94423376885874
 20
73.55566067013985
 30
0.0
 11
63.94423376885874
 21
60.43066067013985
 31
0.0
  0
LINE
  5
A99
330
2
100
AcDbEntity
  8
A-WALL-SHKE
100
AcDbLine
 10
57.13173376885873
 20
73.55566067013985
 30
0.0
 11
57.13173376885873
 21
60.43066067013985
 31
0.0
  0
LINE
  5
A9A
330
2
100
AcDbEntity
  8
A-WALL-SHKE
100
AcDbLine
 10
57.31923376885873
 20
73.55566067013985
 30
0.0
 11
57.31923376885873
 21
60.43066067013985
 31
0.0
  0
LINE
  5
AAD
330
2
100
AcDbEntity
  8
A-WALL-SHKE
100
AcDbLine
 10
76.19423376885873
 20
60.43066067013984
 30
0.0
 11
76.19423376885873
 21
47.30566067013984
 31
0.0
  0
LINE
  5
AAE
330
2
100
AcDbEntity
  8
A-WALL-SHKE
100
AcDbLine
 10
76.38173376885872
 20
60.43066067013984
 30
0.0
 11
76.38173376885873
 21
47.30566067013984
 31
0.0
  0
LINE
  5
AB3
330
2
100
AcDbEntity
  8
A-WALL-SHKE
100
AcDbLine
 10
83.57456763539232
 20
60.43066067013984
 30
0.0
 11
83.57456763539232
 21
47.30566067013984
 31
0.0
  0
LINE
  5
AB4
330
2
100
AcDbEntity
  8
A-WALL-SHKE
100
AcDbLine
 10
83.76206763539233
 20
60.43066067013984
 30
0.0
 11
83.76206763539233
 21
47.30566067013984
 31
0.0
  0
LINE
  5
AB7
330
2
100
AcDbEntity
  8
A-WALL-SHKE
100
AcDbLine
 10
91.01206763539233
 20
60.43066067013984
 30
0.0
 11
91.01206763539233
 21
47.30566067013984
 31
0.0
  0
LINE
  5
AB8
330
2
100
AcDbEntity
  8
A-WALL-SHKE
100
AcDbLine
 10
91.19956763539233
 20
60.43066067013984
 30
0.0
 11
91.19956763539233
 21
47.30566067013984
 31
0.0
  0
LINE
  5
ABB
330
2
100
AcDbEntity
  8
A-WALL-SHKE
100
AcDbLine
 10
98.57990150192591
 20
47.30566067013984
 30
0.0
 11
98.57990150192591
 21
61.55566067013984
 31
0.0
  0
LINE
  5
ABC
330
2
100
AcDbEntity
  8
A-WALL-SHKE
100
AcDbLine
 10
98.39240150192592
 20
47.30566067013984
 30
0.0
 11
98.39240150192592
 21
61.55566067013984
 31
0.0
  0
LINE
  5
AC7
330
2
100
AcDbEntity
  8
A-WALL-SHKE
100
AcDbLine
 10
74.31389990232514
 20
47.30566067013984
 30
0.0
 11
74.31389990232514
 21
34.18066067013984
 31
0.0
  0
LINE
  5
AC8
330
2
100
AcDbEntity
  8
A-WALL-SHKE
100
AcDbLine
 10
74.50139990232514
 20
47.30566067013984
 30
0.0
 11
74.50139990232514
 21
34.18066067013984
 31
0.0
  0
LINE
  5
AC9
330
2
100
AcDbEntity
  8
A-WALL-SHKE
100
AcDbLine
 10
80.93889990232515
 20
47.30566067013984
 30
0.0
 11
80.93889990232515
 21
34.18066067013984
 31
0.0
  0
LINE
  5
ACA
330
2
100
AcDbEntity
  8
A-WALL-SHKE
100
AcDbLine
 10
81.12639990232514
 20
47.30566067013984
 30
0.0
 11
81.12639990232514
 21
34.18066067013984
 31
0.0
  0
LINE
  5
AD5
330
2
100
AcDbEntity
  8
A-WALL-SHKE
100
AcDbLine
 10
95.75673376885871
 20
47.30566067013984
 30
0.0
 11
95.75673376885873
 21
34.18066067013984
 31
0.0
  0
LINE
  5
AD6
330
2
100
AcDbEntity
  8
A-WALL-SHKE
100
AcDbLine
 10
95.94423376885872
 20
47.30566067013984
 30
0.0
 11
95.94423376885874
 21
34.18066067013984
 31
0.0
  0
LINE
  5
AD9
330
2
100
AcDbEntity
  8
A-WALL-SHKE
100
AcDbLine
 10
89.13173376885874
 20
47.30566067013984
 30
0.0
 11
89.13173376885874
 21
34.18066067013984
 31
0.0
  0
LINE
  5
ADA
330
2
100
AcDbEntity
  8
A-WALL-SHKE
100
AcDbLine
 10
89.31923376885873
 20
47.30566067013984
 30
0.0
 11
89.31923376885874
 21
34.18066067013984
 31
0.0
  0
LINE
  5
ADB
330
2
100
AcDbEntity
  8
A-WALL-SHKE
100
AcDbLine
 10
103.9495676353923
 20
47.30566067013984
 30
0.0
 11
103.9495676353923
 21
34.18066067013984
 31
0.0
  0
LINE
  5
ADF
330
2
100
AcDbEntity
  8
A-WALL-SHKE
100
AcDbLine
 10
85.32456763539233
 20
73.55566067013985
 30
0.0
 11
85.32456763539233
 21
60.43066067013985
 31
0.0
  0
LINE
  5
AE0
330
2
100
AcDbEntity
  8
A-WALL-SHKE
100
AcDbLine
 10
85.13706763539232
 20
73.55566067013985
 30
0.0
 11
85.13706763539232
 21
60.43066067013985
 31
0.0
  0
LINE
  5
AE3
330
2
100
AcDbEntity
  8
A-WALL-SHKE
100
AcDbLine
 10
78.57456763539234
 20
73.55566067013985
 30
0.0
 11
78.57456763539232
 21
60.43066067013985
 31
0.0
  0
LINE
  5
AE4
330
2
100
AcDbEntity
  8
A-WALL-SHKE
100
AcDbLine
 10
78.76206763539233
 20
73.55566067013985
 30
0.0
 11
78.76206763539233
 21
60.43066067013985
 31
0.0
  0
LINE
  5
AFA
102
{ACAD_REACTORS
330
12CA
102
}
330
2
100
AcDbEntity
  8
A-WALL-SHKE
100
AcDbLine
 10
91.76206763539232
 20
73.55566067013983
 30
0.0
 11
91.76206763539232
 21
60.43066067013985
 31
0.0
  0
LINE
  5
B09
330
2
100
AcDbEntity
  8
A-WALL-STUD
100
AcDbLine
 10
44.51206763539232
 20
74.55566067013986
 30
0.0
 11
43.01206763539233
 21
74.55566067013984
 31
0.0
  0
LINE
  5
B0A
330
2
100
AcDbEntity
  8
A-WALL-STUD
100
AcDbLine
 10
60.51206763539233
 20
74.55566067013984
 30
0.0
 11
59.01206763539232
 21
74.55566067013984
 31
0.0
  0
LINE
  5
B0B
330
2
100
AcDbEntity
  8
A-WALL-STUD
100
AcDbLine
 10
76.51206763539232
 20
74.55566067013984
 30
0.0
 11
75.01206763539233
 21
74.55566067013984
 31
0.0
  0
LINE
  5
B0C
330
2
100
AcDbEntity
  8
A-WALL-STUD
100
AcDbLine
 10
92.51206763539233
 20
74.55566067013984
 30
0.0
 11
91.01206763539233
 21
74.55566067013984
 31
0.0
  0
LINE
  5
B0D
330
2
100
AcDbEntity
  8
A-WALL-STUD
100
AcDbLine
 10
123.0120676353923
 20
54.32489586825051
 30
0.0
 11
123.0120676353923
 21
59.31669826330932
 31
0.0
  0
LINE
  5
B0E
330
2
100
AcDbEntity
  8
A-WALL-STUD
100
AcDbLine
 10
108.5120676353923
 20
73.55566067013987
 30
0.0
 11
108.5120676353923
 21
74.55566067013984
 31
0.0
  0
LINE
  5
B0F
330
2
100
AcDbEntity
  8
A-WALL-STUD
100
AcDbLine
 10
107.0120676353923
 20
73.55566067013985
 30
0.0
 11
107.0120676353923
 21
74.55566067013984
 31
0.0
  0
LINE
  5
B10
102
{ACAD_REACTORS
330
12CA
102
}
330
2
100
AcDbEntity
  8
A-WALL-SHKE
100
AcDbLine
 10
107.7620676353923
 20
61.55566067013984
 30
0.0
 11
107.7620676353923
 21
47.30566067013984
 31
0.0
  0
ARC
  5
B11
102
{ACAD_REACTORS
330
12CA
102
}
330
2
100
AcDbEntity
  8
A-WALL-SHTH
100
AcDbCircle
 10
111.6526543396655
 20
45.28552911501913
 30
0.0
 40
13.80897314504185
100
AcDbArc
 50
21.37168391381794
 51
94.92722487875061
  0
ARC
  5
B12
102
{ACAD_REACTORS
330
12CA
102
}
330
2
100
AcDbEntity
  8
A-WALL-SHTH
100
AcDbCircle
 10
111.9493955146912
 20
46.50120762085151
 30
0.0
 40
13.12961206104306
100
AcDbArc
 50
16.89878482201379
 51
94.37311453200562
  0
LINE
  5
B14
330
2
100
AcDbEntity
  8
A-WALL-SHKE
100
AcDbLine
 10
102.8466181730327
 20
61.55566067013984
 30
0.0
 11
102.8466181730327
 21
47.30566067013984
 31
0.0
  0
LINE
  5
B15
330
2
100
AcDbEntity
  8
A-WALL-SHKE
100
AcDbLine
 10
102.6591181730327
 20
61.55566067013984
 30
0.0
 11
102.6591181730327
 21
47.30566067013984
 31
0.0
  0
LINE
  5
B16
330
2
100
AcDbEntity
  8
A-WALL-SHKE
100
AcDbLine
 10
123.7620676353923
 20
34.18066067013984
 30
0.0
 11
114.9495676353923
 21
34.18066067013984
 31
0.0
  0
LINE
  5
B23
330
2
100
AcDbEntity
  8
A-WALL-SHKE
100
AcDbLine
 10
110.5745676353923
 20
48.43066067013984
 30
0.0
 11
110.5745676353923
 21
34.18066067013984
 31
0.0
  0
LINE
  5
B24
330
2
100
AcDbEntity
  8
A-WALL-SHKE
100
AcDbLine
 10
110.7620676353923
 20
48.43066067013984
 30
0.0
 11
110.7620676353923
 21
34.18066067013984
 31
0.0
  0
LINE
  5
B27
330
2
100
AcDbEntity
  8
A-WALL-SHKE
100
AcDbLine
 10
104.1370676353923
 20
47.30566067013984
 30
0.0
 11
104.1370676353923
 21
34.18066067013984
 31
0.0
  0
LINE
  5
B28
330
2
100
AcDbEntity
  8
A-WALL-SHKE
100
AcDbLine
 10
117.3245676353923
 20
48.43066067013984
 30
0.0
 11
117.3245676353923
 21
34.18066067013984
 31
0.0
  0
LINE
  5
B29
330
2
100
AcDbEntity
  8
A-WALL-SHKE
100
AcDbLine
 10
117.1370676353923
 20
48.43066067013984
 30
0.0
 11
117.1370676353923
 21
34.18066067013984
 31
0.0
  0
LINE
  5
B2D
102
{ACAD_REACTORS
330
12CA
102
}
330
2
100
AcDbEntity
  8
A-WALL-SHKE
100
AcDbLine
 10
123.7620676353923
 20
48.43066067013984
 30
0.0
 11
123.7620676353923
 21
34.18066067013984
 31
0.0
  0
LINE
  5
E0C
330
2
100
AcDbEntity
  8
A-WALL-STUD
100
AcDbLine
 10
108.5120676353923
 20
74.55566067013984
 30
0.0
 11
107.0120676353923
 21
74.55566067013984
 31
0.0
  0
LINE
  5
E0D
330
2
100
AcDbEntity
  8
A-WALL-STUD
100
AcDbLine
 10
124.5120676353923
 20
74.55566067013984
 30
0.0
 11
123.0120676353923
 21
74.55566067013984
 31
0.0
  0
LINE
  5
E0F
330
2
100
AcDbEntity
  8
A-WALL-STUD
100
AcDbLine
 10
127.5120676353923
 20
70.05566067013984
 30
0.0
 11
127.5120676353923
 21
73.55566067013985
 31
0.0
  0
LINE
  5
E10
330
2
100
AcDbEntity
  8
A-WALL-STUD
100
AcDbLine
 10
127.5120676353923
 20
70.05566067013984
 30
0.0
 11
108.1589668157122
 21
70.05566067013984
 31
0.0
  0
LINE
  5
E11
330
2
100
AcDbEntity
  8
A-WALL-STUD
100
AcDbLine
 10
124.5120676353923
 20
73.55566067013983
 30
0.0
 11
124.5120676353923
 21
74.55566067013984
 31
0.0
  0
LINE
  5
E12
330
2
100
AcDbEntity
  8
A-WALL-STUD
100
AcDbLine
 10
123.0120676353923
 20
73.55566067013985
 30
0.0
 11
123.0120676353923
 21
74.55566067013984
 31
0.0
  0
LINE
  5
E13
330
2
100
AcDbEntity
  8
A-WALL-STUD
100
AcDbLine
 10
127.5120676353923
 20
59.31669826330931
 30
0.0
 11
120.2218670627379
 21
59.31669826330933
 31
0.0
  0
LINE
  5
E14
330
2
100
AcDbEntity
  8
A-WALL-STUD
100
AcDbLine
 10
127.5120676353923
 20
59.31669826330931
 30
0.0
 11
127.5120676353923
 21
62.81669826330932
 31
0.0
  0
LINE
  5
E15
330
2
100
AcDbEntity
  8
A-WALL-STUD
100
AcDbLine
 10
127.5120676353923
 20
62.81669826330932
 30
0.0
 11
117.4846939931106
 21
62.81669826330933
 31
0.0
  0
LINE
  5
E16
330
2
100
AcDbEntity
  8
A-WALL-STUD
100
AcDbLine
 10
127.5120676353923
 20
49.69169826330932
 30
0.0
 11
124.5120676353923
 21
49.69169826330933
 31
0.0
  0
LINE
  5
E17
330
2
100
AcDbEntity
  8
A-WALL-STUD
100
AcDbLine
 10
127.5120676353923
 20
46.19169826330931
 30
0.0
 11
124.5120676353923
 21
46.19169826330931
 31
0.0
  0
LINE
  5
E18
330
2
100
AcDbEntity
  8
A-WALL-STUD
100
AcDbLine
 10
127.5120676353923
 20
46.19169826330931
 30
0.0
 11
127.5120676353923
 21
49.69169826330932
 31
0.0
  0
LINE
  5
E19
330
2
100
AcDbEntity
  8
A-WALL-STUD
100
AcDbLine
 10
124.5120676353923
 20
62.81669826330931
 30
0.0
 11
124.5120676353923
 21
70.05566067013984
 31
0.0
  0
LINE
  5
E1A
330
2
100
AcDbEntity
  8
A-WALL-STUD
100
AcDbLine
 10
123.0120676353923
 20
62.81669826330933
 30
0.0
 11
123.0120676353923
 21
70.05566067013984
 31
0.0
  0
POINT
  5
F96
330
2
100
AcDbEntity
  8
A-WALL-SHTH
100
AcDbPoint
 10
115.641561765615
 20
26.00799345838854
 30
0.0
  0
LINE
  5
F97
330
2
100
AcDbEntity
  8
A-WALL-STUD
100
AcDbLine
 10
145.1439838935004
 20
73.55566067013985
 30
0.0
 11
146.1439838935004
 21
73.55566067013985
 31
0.0
  0
LINE
  5
F98
330
2
100
AcDbEntity
  8
A-WALL-STUD
100
AcDbLine
 10
145.1439838935004
 20
70.05566067013984
 30
0.0
 11
146.1439838935004
 21
70.05566067013984
 31
0.0
  0
LINE
  5
F99
330
2
100
AcDbEntity
  8
A-WALL-STUD
100
AcDbLine
 10
145.1439838935004
 20
62.81669826330933
 30
0.0
 11
146.1439838935004
 21
62.81669826330933
 31
0.0
  0
LINE
  5
F9A
330
2
100
AcDbEntity
  8
A-WALL-STUD
100
AcDbLine
 10
145.1439838935004
 20
59.31669826330934
 30
0.0
 11
146.1439838935004
 21
59.31669826330934
 31
0.0
  0
LINE
  5
F9B
330
2
100
AcDbEntity
  8
A-WALL-STUD
100
AcDbLine
 10
145.1439838935004
 20
49.69169826330932
 30
0.0
 11
146.1439838935004
 21
49.69169826330931
 31
0.0
  0
LINE
  5
F9C
330
2
100
AcDbEntity
  8
A-WALL-STUD
100
AcDbLine
 10
145.1439838935004
 20
46.19169826330932
 30
0.0
 11
146.1439838935004
 21
46.19169826330933
 31
0.0
  0
LINE
  5
F9E
330
2
100
AcDbEntity
  8
A-WALL-STUD
100
AcDbLine
 10
146.1439838935004
 20
74.55566067013984
 30
0.0
 11
149.6439838935004
 21
74.55566067013984
 31
0.0
  0
LINE
  5
F9F
330
2
100
AcDbEntity
  8
A-WALL-STUD
100
AcDbLine
 10
149.6439838935004
 20
74.55566067013984
 30
0.0
 11
149.6439838935004
 21
34.18066067013985
 31
0.0
  0
LINE
  5
FA0
330
2
100
AcDbEntity
  8
A-WALL-STUD
100
AcDbLine
 10
146.1439838935004
 20
74.55566067013984
 30
0.0
 11
146.1439838935004
 21
34.18066067013985
 31
0.0
  0
LINE
  5
FA1
330
2
100
AcDbEntity
  8
A-WALL-STUD
100
AcDbLine
 10
145.1439838935004
 20
73.55566067013985
 30
0.0
 11
145.1439838935004
 21
70.05566067013984
 31
0.0
  0
LINE
  5
FA2
330
2
100
AcDbEntity
  8
A-WALL-STUD
100
AcDbLine
 10
145.1439838935004
 20
49.69169826330931
 30
0.0
 11
145.1439838935004
 21
46.19169826330932
 31
0.0
  0
LINE
  5
FA4
330
2
100
AcDbEntity
  8
A-WALL-STUD
100
AcDbLine
 10
146.1439838935004
 20
73.55566067013985
 30
0.0
 11
145.1439838935004
 21
70.05566067013984
 31
0.0
  0
LINE
  5
FA5
330
2
100
AcDbEntity
  8
A-WALL-STUD
100
AcDbLine
 10
145.1439838935004
 20
73.55566067013985
 30
0.0
 11
146.1439838935004
 21
70.05566067013984
 31
0.0
  0
LINE
  5
FA6
330
2
100
AcDbEntity
  8
A-WALL-STUD
100
AcDbLine
 10
145.1439838935004
 20
62.81669826330933
 30
0.0
 11
146.1439838935004
 21
59.31669826330934
 31
0.0
  0
LINE
  5
FA7
330
2
100
AcDbEntity
  8
A-WALL-STUD
100
AcDbLine
 10
146.1439838935004
 20
62.81669826330933
 30
0.0
 11
145.1439838935004
 21
59.31669826330933
 31
0.0
  0
LINE
  5
FA8
330
2
100
AcDbEntity
  8
A-WALL-STUD
100
AcDbLine
 10
145.1439838935004
 20
49.69169826330931
 30
0.0
 11
146.1439838935004
 21
46.19169826330933
 31
0.0
  0
LINE
  5
FA9
330
2
100
AcDbEntity
  8
A-WALL-STUD
100
AcDbLine
 10
146.1439838935004
 20
49.69169826330931
 30
0.0
 11
145.1439838935004
 21
46.19169826330932
 31
0.0
  0
LINE
  5
FAA
330
2
100
AcDbEntity
  8
A-WALL-SHTH
100
AcDbLine
 10
145.0439838935004
 20
73.55566067013985
 30
0.0
 11
145.0439838935004
 21
35.18066067013986
 31
0.0
  0
LINE
  5
1113
102
{ACAD_REACTORS
330
12CA
102
}
330
2
100
AcDbEntity
  8
A-WALL-SHKE
100
AcDbLine
 10
123.7620676353923
 20
48.43066067013984
 30
0.0
 11
107.7620676353923
 21
48.43066067013984
 31
0.0
  0
LINE
  5
1122
102
{ACAD_REACTORS
330
12CA
102
}
330
2
100
AcDbEntity
  8
A-WALL-SHKE
100
AcDbLine
 10
107.7620676353923
 20
61.55566067013984
 30
0.0
 11
91.76206763539232
 21
61.55566067013985
 31
0.0
  0
LINE
  5
1159
330
2
100
AcDbEntity
  8
A-WALL-SHKE
100
AcDbLine
 10
144.5331709241552
 20
61.55007810495123
 30
0.0
 11
144.7831452804301
 21
61.54649743392861
 31
0.0
  0
LINE
  5
115C
330
2
100
AcDbEntity
  8
A-WALL-STUD
100
AcDbLine
 10
145.1439838935004
 20
62.81669826330933
 30
0.0
 11
145.1439838935004
 21
59.31669826330933
 31
0.0
  0
LINE
  5
115D
330
2
100
AcDbEntity
  8
A-WALL-SHKE
100
AcDbLine
 10
144.8095884504017
 20
73.53483481394912
 30
0.0
 11
144.6555996980302
 21
67.425975895826
 31
0.0
  0
LINE
  5
115F
330
2
100
AcDbEntity
  8
A-WALL-SHKE
100
AcDbLine
 10
144.5596427052517
 20
73.54004293082501
 30
0.0
 11
144.2598266803568
 21
60.43270314850075
 31
0.0
  0
LINE
  5
1161
330
2
100
AcDbEntity
  8
A-WALL-SHKE
100
AcDbLine
 10
144.5331973340068
 20
61.55171413678686
 30
0.0
 11
144.7831536871309
 21
61.54704278441993
 31
0.0
  0
LINE
  5
1162
330
2
100
AcDbEntity
  8
A-WALL-SHKE
100
AcDbLine
 10
144.6555996980302
 20
67.425975895826
 30
0.0
 11
144.5097724255069
 21
60.42749503162492
 31
0.0
  0
LINE
  5
1164
330
2
100
AcDbEntity
  8
A-WALL-SHKE
100
AcDbLine
 10
144.2598266803569
 20
60.43270314850076
 30
0.0
 11
144.5097724255069
 21
60.4274950316249
 31
0.0
  0
LINE
  5
1165
330
2
100
AcDbEntity
  8
A-WALL-SHKE
100
AcDbLine
 10
144.2598266803568
 20
60.43270314850075
 30
0.0
 11
144.5097724255069
 21
60.4274950316249
 31
0.0
  0
LINE
  5
1167
330
2
100
AcDbEntity
  8
A-WALL-SHKE
100
AcDbLine
 10
145.0068066750821
 20
72.28045404673112
 30
0.0
 11
144.7831546965982
 21
61.54704276792423
 31
0.0
  0
LINE
  5
116A
330
2
100
AcDbEntity
  8
A-WALL-SHKE
100
AcDbLine
 10
144.5596427052517
 20
73.54004293082501
 30
0.0
 11
144.8095884504017
 21
73.53483481394912
 31
0.0
  0
LINE
  5
117F
330
2
100
AcDbEntity
  8
A-WALL-SHKE
100
AcDbLine
 10
144.5331973340068
 20
61.55171413678686
 30
0.0
 11
144.2669302490936
 21
47.30420200871722
 31
0.0
  0
LINE
  5
1180
330
2
100
AcDbEntity
  8
A-WALL-SHKE
100
AcDbLine
 10
144.6476844684908
 20
54.29830854382313
 30
0.0
 11
144.5168866022177
 21
47.29953065635033
 31
0.0
  0
LINE
  5
1181
330
2
100
AcDbEntity
  8
A-WALL-SHKE
100
AcDbLine
 10
145.0097532784203
 20
60.29258966643288
 30
0.0
 11
144.7878640409928
 21
48.41966289304155
 31
0.0
  0
LINE
  5
1182
330
2
100
AcDbEntity
  8
A-WALL-SHKE
100
AcDbLine
 10
144.2669302490936
 20
47.30420200871722
 30
0.0
 11
144.5168866022177
 21
47.29953065635032
 31
0.0
  0
LINE
  5
1183
330
2
100
AcDbEntity
  8
A-WALL-SHKE
100
AcDbLine
 10
144.2669302490937
 20
47.30420200871722
 30
0.0
 11
144.5168866022177
 21
47.29953065635032
 31
0.0
  0
LINE
  5
1186
330
2
100
AcDbEntity
  8
A-WALL-SHKE
100
AcDbLine
 10
144.7831536871308
 20
61.54704278441993
 30
0.0
 11
144.6476844684908
 21
54.29830854382313
 31
0.0
  0
LINE
  5
1188
330
2
100
AcDbEntity
  8
A-WALL-SHKE
100
AcDbLine
 10
144.5331973340068
 20
61.55171413678686
 30
0.0
 11
144.7831536871308
 21
61.54704278441993
 31
0.0
  0
LINE
  5
118A
330
2
100
AcDbEntity
  8
A-WALL-SHKE
100
AcDbLine
 10
144.537881278017
 20
48.42269821357286
 30
0.0
 11
144.2716141931038
 21
34.17518608550321
 31
0.0
  0
LINE
  5
118B
330
2
100
AcDbEntity
  8
A-WALL-SHKE
100
AcDbLine
 10
144.7878376311411
 20
48.41802686120594
 30
0.0
 11
144.652368412501
 21
41.16929262060913
 31
0.0
  0
LINE
  5
118C
330
2
100
AcDbEntity
  8
A-WALL-SHKE
100
AcDbLine
 10
144.652368412501
 20
41.16929262060913
 30
0.0
 11
144.5215705462279
 21
34.17051473313634
 31
0.0
  0
LINE
  5
118D
330
2
100
AcDbEntity
  8
A-WALL-SHKE
100
AcDbLine
 10
145.0379916911939
 20
47.31682206425967
 30
0.0
 11
144.792547985003
 21
35.29064696982755
 31
0.0
  0
LINE
  5
118E
330
2
100
AcDbEntity
  8
A-WALL-SHKE
100
AcDbLine
 10
144.2716141931038
 20
34.17518608550321
 30
0.0
 11
144.5215705462279
 21
34.17051473313633
 31
0.0
  0
LINE
  5
118F
330
2
100
AcDbEntity
  8
A-WALL-SHKE
100
AcDbLine
 10
144.2716141931039
 20
34.17518608550322
 30
0.0
 11
144.5215705462279
 21
34.17051473313633
 31
0.0
  0
LINE
  5
1190
330
2
100
AcDbEntity
  8
A-WALL-SHKE
100
AcDbLine
 10
144.5425916318789
 20
35.29531832219447
 30
0.0
 11
144.792547985003
 21
35.29064696982755
 31
0.0
  0
LINE
  5
1191
330
2
100
AcDbEntity
  8
A-WALL-SHKE
100
AcDbLine
 10
144.5425652220273
 20
35.29368229035886
 30
0.0
 11
144.7925395783022
 21
35.29010161933623
 31
0.0
  0
LINE
  5
1195
330
2
100
AcDbEntity
  8
A-WALL-SHKE
100
AcDbLine
 10
144.5614315828237
 20
48.5759466124325
 30
0.0
 11
144.8113879359476
 21
48.57127526006557
 31
0.0
  0
CIRCLE
  5
119A
330
2
100
AcDbEntity
  8
NAILS
100
AcDbCircle
 10
43.76206763539232
 20
68.02001188425996
 30
0.0
 40
0.225
  0
CIRCLE
  5
119B
330
2
100
AcDbEntity
  8
NAILS
100
AcDbCircle
 10
59.76206763539233
 20
68.02001188425996
 30
0.0
 40
0.225
  0
CIRCLE
  5
119C
330
2
100
AcDbEntity
  8
NAILS
100
AcDbCircle
 10
75.76206763539232
 20
68.02001188425996
 30
0.0
 40
0.225
  0
CIRCLE
  5
119D
330
2
100
AcDbEntity
  8
NAILS
100
AcDbCircle
 10
91.26206763539233
 20
68.02001188425996
 30
0.0
 40
0.225
  0
CIRCLE
  5
11A0
330
2
100
AcDbEntity
  8
NAILS
100
AcDbCircle
 10
43.76206763539232
 20
55.14501188425995
 30
0.0
 40
0.225
  0
CIRCLE
  5
11A1
330
2
100
AcDbEntity
  8
NAILS
100
AcDbCircle
 10
59.76206763539233
 20
55.14501188425995
 30
0.0
 40
0.225
  0
CIRCLE
  5
11A2
330
2
100
AcDbEntity
  8
NAILS
100
AcDbCircle
 10
75.76206763539232
 20
55.14501188425995
 30
0.0
 40
0.225
  0
CIRCLE
  5
11A3
330
2
100
AcDbEntity
  8
NAILS
100
AcDbCircle
 10
91.76206763539232
 20
55.14501188425995
 30
0.0
 40
0.225
  0
CIRCLE
  5
11A4
330
2
100
AcDbEntity
  8
NAILS
100
AcDbCircle
 10
107.2620676353923
 20
55.14501188425995
 30
0.0
 40
0.225
  0
CIRCLE
  5
11A6
330
2
100
AcDbEntity
  8
NAILS
100
AcDbCircle
 10
43.76206763539232
 20
42.18066067013984
 30
0.0
 40
0.225
  0
CIRCLE
  5
11A7
330
2
100
AcDbEntity
  8
NAILS
100
AcDbCircle
 10
59.76206763539233
 20
42.18066067013984
 30
0.0
 40
0.225
  0
CIRCLE
  5
11A8
330
2
100
AcDbEntity
  8
NAILS
100
AcDbCircle
 10
75.76206763539232
 20
42.18066067013984
 30
0.0
 40
0.225
  0
CIRCLE
  5
11A9
330
2
100
AcDbEntity
  8
NAILS
100
AcDbCircle
 10
91.76206763539232
 20
42.18066086119651
 30
0.0
 40
0.225
  0
CIRCLE
  5
11AA
330
2
100
AcDbEntity
  8
NAILS
100
AcDbCircle
 10
107.7620676353923
 20
42.18066067013984
 30
0.0
 40
0.225
  0
CIRCLE
  5
11AB
330
2
100
AcDbEntity
  8
NAILS
100
AcDbCircle
 10
123.2620676353923
 20
42.18066067013984
 30
0.0
 40
0.225
  0
LINE
  5
11AF
330
2
100
AcDbEntity
  8
A-WALL-STUD
100
AcDbLine
 10
127.5120676353923
 20
34.18066067013984
 30
0.0
 11
127.5120676353923
 21
37.68066067013984
 31
0.0
  0
LINE
  5
11B0
330
2
100
AcDbEntity
  8
A-WALL-STUD
100
AcDbLine
 10
127.5120676353923
 20
34.18066067013984
 30
0.0
 11
123.7620676353923
 21
34.18066067013984
 31
0.0
  0
LINE
  5
11B1
330
2
100
AcDbEntity
  8
A-WALL-STUD
100
AcDbLine
 10
127.5120676353923
 20
37.68066067013984
 30
0.0
 11
124.5120676353923
 21
37.68066067013985
 31
0.0
  0
LINE
  5
11B2
330
2
100
AcDbEntity
  8
A-WALL-STUD
100
AcDbLine
 10
146.1439838935004
 20
37.68066067013983
 30
0.0
 11
145.1439838935004
 21
34.18066067013985
 31
0.0
  0
LINE
  5
11B3
330
2
100
AcDbEntity
  8
A-WALL-STUD
100
AcDbLine
 10
145.1439838935004
 20
37.68066067013983
 30
0.0
 11
146.1439838935004
 21
34.18066067013985
 31
0.0
  0
LINE
  5
11B4
330
2
100
AcDbEntity
  8
A-WALL-STUD
100
AcDbLine
 10
145.1439838935004
 20
37.68066067013983
 30
0.0
 11
145.1439838935004
 21
34.18066067013985
 31
0.0
  0
LINE
  5
11B5
330
2
100
AcDbEntity
  8
A-WALL-STUD
100
AcDbLine
 10
144.6439838935005
 20
34.18066067013985
 30
0.0
 11
146.1439838935004
 21
34.18066067013985
 31
0.0
  0
LINE
  5
11B6
330
2
100
AcDbEntity
  8
A-WALL-STUD
100
AcDbLine
 10
145.1439838935004
 20
37.68066067013984
 30
0.0
 11
146.1439838935004
 21
37.68066067013983
 31
0.0
  0
LINE
  5
11C8
330
2
100
AcDbEntity
  8
A-WALL-STUD
100
AcDbLine
 10
146.1439838935004
 20
34.18066067013985
 30
0.0
 11
149.6439838935004
 21
34.18066067013985
 31
0.0
  0
LINE
  5
11CA
102
{ACAD_REACTORS
330
12CA
102
}
330
2
100
AcDbEntity
  8
A-WALL-STUD
100
AcDbLine
 10
127.5120676353923
 20
35.18066067013984
 30
0.0
 11
123.7620676353923
 21
35.18066067013984
 31
0.0
  0
LINE
  5
11CB
330
2
100
AcDbEntity
  8
A-WALL-STUD
100
AcDbLine
 10
144.6439838935004
 20
35.18066067013986
 30
0.0
 11
145.1439838935004
 21
35.18066067013986
 31
0.0
  0
LINE
  5
11CC
330
2
100
AcDbEntity
  8
A-WALL-STUD
  6
HIDDEN2
 62
     5
100
AcDbLine
 10
123.7620676353923
 20
35.18066067013984
 30
0.0
 11
40.30323216925796
 21
35.18066067013984
 31
0.0
  0
LINE
  5
11D0
330
2
100
AcDbEntity
  8
A-WALL-STUD
100
AcDbLine
 10
144.6439838935004
 20
35.18066067013986
 30
0.0
 11
144.6439838935005
 21
34.18066067013985
 31
0.0
  0
LINE
  5
1205
330
2
100
AcDbEntity
  8
A-WALL-SHKE
100
AcDbLine
 10
144.7780888440588
 20
72.28521983778247
 30
0.0
 11
145.0068066750821
 21
72.28045404673112
 31
0.0
  0
LINE
  5
1206
330
2
100
AcDbEntity
  8
A-WALL-SHKE
100
AcDbLine
 10
144.7597969252963
 20
60.29726101879979
 30
0.0
 11
145.0097532784203
 21
60.29258966643288
 31
0.0
  0
LINE
  5
1207
330
2
100
AcDbEntity
  8
A-WALL-SHKE
100
AcDbLine
 10
144.7880311741132
 20
47.32149349444543
 30
0.0
 11
145.0379916911939
 21
47.31682206425967
 31
0.0
  0
TEXT
  5
1219
330
2
100
AcDbEntity
  8
A-TEXT
100
AcDbText
 10
129.7489005619748
 20
60.83085670823911
 30
0.0
 40
1.0
  1
1x4 OR 1x6
 41
0.8100000000000001
100
AcDbText
  0
TEXT
  5
121A
330
2
100
AcDbEntity
  8
A-TEXT
100
AcDbText
 10
129.7489005619748
 20
59.21180908919149
 30
0.0
 40
1.0
  1
SHEATHING
 41
0.8100000000000001
100
AcDbText
  0
TEXT
  5
121B
330
2
100
AcDbEntity
  8
A-TEXT
100
AcDbText
 10
122.4335755707798
 20
77.95412220441997
 30
0.0
 40
1.0
  1

 41
0.8100000000000001
100
AcDbText
  0
TEXT
  5
121C
330
2
100
AcDbEntity
  8
A-TEXT
100
AcDbText
 10
129.7489005619748
 20
55.97371385109624
 30
0.0
 40
1.0
  1
MOISTURE BARRIER
 41
0.8100000000000001
100
AcDbText
  0
TEXT
  5
121D
330
2
100
AcDbEntity
  8
A-TEXT
100
AcDbText
 10
122.4335755707798
 20
74.71602696632473
 30
0.0
 40
1.0
  1

 41
0.8100000000000001
100
AcDbText
  0
TEXT
  5
121E
330
2
100
AcDbEntity
  8
A-TEXT
100
AcDbText
 10
129.7489005619748
 20
44.02160609768509
 30
0.0
 40
1.0
  1
SHAKERTOWN SIDING
 41
0.8100000000000001
100
AcDbText
  0
TEXT
  5
121F
330
2
100
AcDbEntity
  8
A-TEXT
100
AcDbText
 10
129.7489005619748
 20
42.40255847863747
 30
0.0
 40
1.0
  1
PANELS
 41
0.8100000000000001
100
AcDbText
  0
TEXT
  5
1220
330
2
100
AcDbEntity
  8
A-TEXT
100
AcDbText
 10
122.4335755707798
 20
69.85888410918187
 30
0.0
 40
1.0
  1

 41
0.8100000000000001
100
AcDbText
  0
TEXT
  5
1221
330
2
100
AcDbEntity
  8
A-TEXT
100
AcDbText
 10
129.7489005619748
 20
39.16446324054223
 30
0.0
 40
1.0
  1
FURRING STRIP
 41
0.8100000000000001
100
AcDbText
  0
LWPOLYLINE
  5
1224
102
{ACAD_REACTORS
330
12CA
102
}
330
2
100
AcDbEntity
  8
A-TEXT
100
AcDbPolyline
 90
        4
 70
     0
 10
121.1748004231898
 20
44.84561200031419
 40
0.0
 41
0.50000004
 10
122.6748004231898
 20
44.84561200031419
 40
0.0
 41
0.0
 10
129.301200804727
 20
44.84561200031419
 40
0.0
 41
0.0
 10
129.301200804727
 20
44.84561200031419
 40
0.0
 41
0.0
  0
LWPOLYLINE
  5
1227
330
2
100
AcDbEntity
  8
A-TEXT
100
AcDbPolyline
 90
        4
 70
     0
 10
144.4358785516493
 20
42.96470072396873
 40
0.0
 41
0.50000004
 10
142.9358785516493
 20
42.96470072396873
 40
0.0
 41
0.0
 10
134.3554255546795
 20
42.96470072396873
 40
0.0
 41
0.0
 10
134.3554255546795
 20
42.96470072396873
 40
0.0
 41
0.0
  0
LWPOLYLINE
  5
122A
330
2
100
AcDbEntity
  8
A-TEXT
100
AcDbPolyline
 90
        4
 70
     0
 10
144.7281479615143
 20
35.18066067013986
 40
0.0
 41
0.50000004
 10
143.7444565108499
 20
36.31307010576361
 40
0.0
 41
0.0
 10
140.8169048466567
 20
39.68321948092512
 40
0.0
 41
0.0
 10
139.3369749463737
 20
39.68321948092512
 40
0.0
 41
0.0
  0
LWPOLYLINE
  5
122D
102
{ACAD_REACTORS
330
12CA
102
}
330
2
100
AcDbEntity
  8
A-TEXT
100
AcDbPolyline
 90
        4
 70
     0
 10
122.4234915299093
 20
35.3526193719467
 40
0.0
 41
0.50000004
 10
123.3988950204812
 20
36.49217543927299
 40
0.0
 41
0.0
 10
125.8590427945881
 20
39.36634633326804
 40
0.0
 41
0.0
 10
129.5060126164502
 20
39.36634633326804
 40
0.0
 41
0.0
  0
LWPOLYLINE
  5
1230
102
{ACAD_REACTORS
330
12CA
102
}
330
2
100
AcDbEntity
  8
A-TEXT
100
AcDbPolyline
 90
        4
 70
     0
 10
123.2177879672044
 20
53.23990515150461
 40
0.0
 41
0.50000004
 10
124.3369180907082
 20
54.23867828223371
 40
0.0
 41
0.0
 10
126.8107175886217
 20
56.44643269562727
 40
0.0
 41
0.0
 10
129.3910730816888
 20
56.44643269562727
 40
0.0
 41
0.0
  0
LWPOLYLINE
  5
1233
330
2
100
AcDbEntity
  8
A-TEXT
100
AcDbPolyline
 90
        4
 70
     0
 10
145.0439838935004
 20
52.21254649500542
 40
0.0
 41
0.50000004
 10
144.2189871487553
 20
53.46529562039326
 40
0.0
 41
0.0
 10
142.393725916786
 20
56.44780620363409
 40
0.0
 41
0.0
 10
141.6609274855412
 20
56.44780620363409
 40
0.0
 41
0.0
  0
LWPOLYLINE
  5
1236
330
2
100
AcDbEntity
  8
A-TEXT
100
AcDbPolyline
 90
        4
 70
     0
 10
145.0439838935004
 20
59.65613274114864
 40
0.0
 41
0.50000004
 10
143.5439838935004
 20
59.65613274114864
 40
0.0
 41
0.0
 10
136.6055368166212
 20
59.65613274114864
 40
0.0
 41
0.0
 10
136.6055368166212
 20
59.65613274114864
 40
0.0
 41
0.0
  0
LWPOLYLINE
  5
1239
330
2
100
AcDbEntity
  8
A-TEXT
100
AcDbPolyline
 90
        4
 70
     0
 10
127.5120676353923
 20
61.4451459195347
 40
0.0
 41
0.50000004
 10
129.0120676353923
 20
61.4451459195347
 40
0.0
 41
0.0
 10
129.4437336263619
 20
61.4451459195347
 40
0.0
 41
0.0
 10
129.4437336263619
 20
61.4451459195347
 40
0.0
 41
0.0
  0
INSERT
  5
124E
330
2
100
AcDbEntity
  8
A-TEXT
100
AcDbBlockReference
  2
NEWCOLOR
 10
0.0
 20
0.0
 30
0.0
  0
LINE
  5
1262
330
2
100
AcDbEntity
  8
NAILS
100
AcDbLine
 10
144.0179623489389
 20
42.18066067013984
 30
0.0
 11
147.3939838935004
 21
42.18066067013984
 31
0.0
  0
LINE
  5
1263
330
2
100
AcDbEntity
  8
NAILS
100
AcDbLine
 10
144.1707658439901
 20
42.36816067013984
 30
0.0
 11
144.1707658439901
 21
41.99316067013984
 31
0.0
  0
LINE
  5
1264
330
2
100
AcDbEntity
  8
NAILS
100
AcDbLine
 10
143.9711167640277
 20
55.14501188425995
 30
0.0
 11
147.3939838935004
 21
55.14501188425995
 31
0.0
  0
LINE
  5
1265
330
2
100
AcDbEntity
  8
NAILS
100
AcDbLine
 10
144.1239202590789
 20
55.33251188425996
 30
0.0
 11
144.1239202590789
 21
54.95751188425995
 31
0.0
  0
LINE
  5
1266
330
2
100
AcDbEntity
  8
NAILS
100
AcDbLine
 10
144.0179740498044
 20
68.02001188425996
 30
0.0
 11
147.3939838935004
 21
68.02001188425997
 31
0.0
  0
LINE
  5
1267
330
2
100
AcDbEntity
  8
NAILS
100
AcDbLine
 10
144.1707775448556
 20
68.20751188425996
 30
0.0
 11
144.1707775448556
 21
67.83251188425996
 31
0.0
  0
LINE
  5
129A
102
{ACAD_REACTORS
330
12CA
102
}
330
2
100
AcDbEntity
  8
A-WALL-STUD
100
AcDbLine
 10
124.5120676353923
 20
35.18066067013984
 30
0.0
 11
124.5120676353923
 21
59.31669826330933
 31
0.0
  0
HATCH
  5
12CA
330
2
100
AcDbEntity
  8
A-TEXT
100
AcDbHatch
 10
0.0
 20
0.0
 30
0.0
210
0.0
220
0.0
230
1.0
  2
ANSI31
 70
     0
 71
     1
 91
        4
 92
       23
 72
     1
 73
     1
 93
        4
 10
101.6104953622965
 20
72.62343070388664
 42
-0.302327985179316
 10
110.9482473288865
 20
59.59259468195193
 42
-0.284352546718356
 10
123.2177879672044
 20
53.23990515150461
 42
0.0
 10
123.4076984925699
 20
53.40939172504425
 42
0.2317682491247329
 97
        4
330
A2D
330
B12
330
1230
330
A2A
 92
        7
 72
     1
 73
     1
 93
       11
 10
110.4665969319817
 20
59.04347253495531
 42
0.3476774528794397
 10
98.68767573331155
 20
73.28201921898084
 42
0.0140323307048197
 10
96.85461910494296
 20
73.55566067013983
 42
0.0
 10
91.76206763539234
 20
73.55566067013985
 42
0.0
 10
91.76206763539232
 20
61.55566067013985
 42
0.0
 10
107.7620676353923
 20
61.55566067013984
 42
0.0
 10
107.7620676353923
 20
48.43066067013984
 42
0.0
 10
123.7620676353923
 20
48.43066067013984
 42
0.0
 10
123.7620676353923
 20
44.84561200031418
 42
0.0
 10
124.5120676353923
 20
44.84561200031417
 42
0.0
 10
124.5120676353923
 20
50.31774820903449
 42
0.3324402822828985
 97
       11
330
A2C
330
A2A
330
A29
330
AFA
330
1122
330
B10
330
1113
330
B2D
330
1224
330
129A
330
B11
 92
        7
 72
     0
 73
     1
 93
        4
 10
124.5120676353923
 20
44.84561200031419
 10
123.7620676353923
 20
44.84561200031419
 10
123.7620676353923
 20
36.91646708966076
 10
124.5120676353923
 20
37.79268606853033
 97
        4
330
1224
330
B2D
330
122D
330
129A
 92
        7
 72
     0
 73
     1
 93
        4
 10
124.5120676353923
 20
37.79268606853035
 10
123.7620676353923
 20
36.91646708966075
 10
123.7620676353923
 20
35.18066067013984
 10
124.5120676353923
 20
35.18066067013984
 97
        4
330
122D
330
B2D
330
11CA
330
129A
 75
     0
 76
     1
 52
0.0
 41
3.0
 77
     0
 78
     1
 53
45.0
 43
126.4317257399989
 44
84.64250446153608
 45
-0.2651650429449553
 46
0.2651650429449553
 79
     0
 47
0.1213353010540531
 98
        4
 10
112.1939924680012
 20
64.3379905325267
 10
111.7082840389461
 20
53.53914869575621
 10
124.2152723957626
 20
39.94959494647588
 10
124.0938453670382
 20
36.30953588999375
  0
ENDSEC
  0
SECTION
  2
OBJECTS
  0
DICTIONARY
  5
1A
330
0
100
AcDbDictionary
281
     1
  3
ACAD_GROUP
350
18
  3
ACAD_LAYOUT
350
12D0
  3
ACAD_MLINESTYLE
350
19
  3
ACAD_PLOTSETTINGS
350
12D1
  3
ACAD_PLOTSTYLENAME
350
12CE
  3
ACDBVARIABLEDICTIONARY
350
661
  0
DICTIONARY
  5
130A
330
2
100
AcDbDictionary
280
     1
281
     1
  3
ACAD_LAYOUTSELFREF
360
130B
  0
DICTIONARY
  5
130C
330
7
100
AcDbDictionary
280
     1
281
     1
  3
ACAD_LAYOUTSELFREF
360
130D
  0
DICTIONARY
  5
18
102
{ACAD_REACTORS
330
1A
102
}
330
1A
100
AcDbDictionary
281
     1
  0
DICTIONARY
  5
12D0
102
{ACAD_REACTORS
330
1A
102
}
330
1A
100
AcDbDictionary
281
     1
  3
Layout1
350
12D3
  3
Model
350
12D2
  0
DICTIONARY
  5
19
102
{ACAD_REACTORS
330
1A
102
}
330
1A
100
AcDbDictionary
281
     1
  3
STANDARD
350
1C
  0
DICTIONARY
  5
12D1
102
{ACAD_REACTORS
330
1A
102
}
330
1A
100
AcDbDictionary
281
     1
  0
ACDBDICTIONARYWDFLT
  5
12CE
102
{ACAD_REACTORS
330
1A
102
}
330
1A
100
AcDbDictionary
281
     1
  3
Normal
350
12CF
100
AcDbDictionaryWithDefault
340
12CF
  0
DICTIONARY
  5
661
102
{ACAD_REACTORS
330
1A
102
}
330
1A
100
AcDbDictionary
281
     1
  3
SORTENTS
350
662
  0
XRECORD
  5
130B
102
{ACAD_REACTORS
330
130A
102
}
330
130A
100
AcDbXrecord
280
     1
340
2
  0
XRECORD
  5
130D
102
{ACAD_REACTORS
330
130C
102
}
330
130C
100
AcDbXrecord
280
     1
340
7
  0
LAYOUT
  5
12D3
102
{ACAD_REACTORS
330
12D0
102
}
330
12D0
100
AcDbPlotSettings
  1

  2
C:\Program Files\AutoCAD 2000i\Plotters\24x36 HP DesignJet 1050C by HP.pc3
  4

  6

 40
0.0
 41
0.0
 42
0.0
 43
0.0
 44
0.0
 45
0.0
 46
0.0
 47
0.0
 48
0.0
 49
0.0
140
0.0
141
0.0
142
1.0
143
1.0
 70
   688
 72
     0
 73
     0
 74
     5
  7
civil.ctb
 75
    16
147
1.0
148
0.0
149
0.0
100
AcDbLayout
  1
Layout1
 70
     1
 71
     1
 10
0.0
 20
0.0
 11
12.0
 21
9.0
 12
0.0
 22
0.0
 32
0.0
 14
1.000000000000000E+20
 24
1.000000000000000E+20
 34
1.000000000000000E+20
 15
-1.000000000000000E+20
 25
-1.000000000000000E+20
 35
-1.000000000000000E+20
146
0.0
 13
0.0
 23
0.0
 33
0.0
 16
1.0
 26
0.0
 36
0.0
 17
0.0
 27
1.0
 37
0.0
 76
     0
330
7
  0
LAYOUT
  5
12D2
102
{ACAD_REACTORS
330
12D0
102
}
330
12D0
100
AcDbPlotSettings
  1

  2
C:\Program Files\AutoCAD 2000i\Plotters\24x36 HP DesignJet 1050C by HP.pc3
  4
User257
  6

 40
4.995333194732666
 41
8.297332763671875
 42
4.995330810546875
 43
8.297332763671875
 44
215.857666015625
 45
279.3576660156249
 46
0.0
 47
0.0
 48
0.0
 49
0.0
140
0.0
141
0.0
142
1.0
143
1.0
 70
 11952
 72
     0
 73
     1
 74
     0
  7
civil.ctb
 75
     0
147
1.0
148
-1614.801340428217
149
-549.0849907792124
100
AcDbLayout
  1
Model
 70
     1
 71
     0
 10
0.0
 20
0.0
 11
12.0
 21
9.0
 12
0.0
 22
0.0
 32
0.0
 14
0.0
 24
0.0
 34
0.0
 15
0.0
 25
0.0
 35
0.0
146
0.0
 13
0.0
 23
0.0
 33
0.0
 16
1.0
 26
0.0
 36
0.0
 17
0.0
 27
1.0
 37
0.0
 76
     0
330
2
  0
MLINESTYLE
  5
1C
102
{ACAD_REACTORS
330
19
102
}
330
19
100
AcDbMlineStyle
  2
STANDARD
 70
     0
  3

 62
     0
 51
90.0
 52
90.0
 71
     2
 49
0.5
 62
   256
  6
BYLAYER
 49
-0.5
 62
   256
  6
BYLAYER
  0
ACDBPLACEHOLDER
  5
12CF
102
{ACAD_REACTORS
330
12CE
102
}
330
12CE
  0
DICTIONARYVAR
  5
662
102
{ACAD_REACTORS
330
661
102
}
330
661
100
DictionaryVariables
280
     0
  1
96
  0
ENDSEC
  0
EOF
