  0
SECTION
  2
HEADER
  9
$ACADVER
  1
AC1014
  9
$ACADMAINTVER
 70
     0
  9
$DWGCODEPAGE
  3
ANSI_1252
  9
$INSBASE
 10
0.0
 20
0.0
 30
0.0
  9
$EXTMIN
 10
0.0
 20
0.0
 30
0.0
  9
$EXTMAX
 10
127.5
 20
79.5
 30
0.0
  9
$LIMMIN
 10
0.0
 20
0.0
  9
$LIMMAX
 10
3456.096
 20
2304.096
  9
$ORTHOMODE
 70
     0
  9
$REGENMODE
 70
     1
  9
$FILLMODE
 70
     1
  9
$QTEXTMODE
 70
     0
  9
$MIRRTEXT
 70
     1
  9
$DRAGMODE
 70
     2
  9
$LTSCALE
 40
96.0
  9
$OSMODE
 70
     0
  9
$ATTMODE
 70
     1
  9
$TEXTSIZE
 40
12.0
  9
$TRACEWID
 40
0.05
  9
$TEXTSTYLE
  7
ROMANS
  9
$CLAYER
  8
0
  9
$CELTYPE
  6
BYLAYER
  9
$CECOLOR
 62
   256
  9
$CELTSCALE
 40
1.0
  9
$DELOBJ
 70
     1
  9
$DISPSILH
 70
     0
  9
$DIMSCALE
 40
96.0
  9
$DIMASZ
 40
0.125
  9
$DIMEXO
 40
0.0625
  9
$DIMDLI
 40
0.0
  9
$DIMRND
 40
0.125
  9
$DIMDLE
 40
0.0
  9
$DIMEXE
 40
0.0625
  9
$DIMTP
 40
0.0
  9
$DIMTM
 40
0.0
  9
$DIMTXT
 40
0.125
  9
$DIMCEN
 40
0.09375
  9
$DIMTSZ
 40
0.0
  9
$DIMTOL
 70
     0
  9
$DIMLIM
 70
     0
  9
$DIMTIH
 70
     0
  9
$DIMTOH
 70
     0
  9
$DIMSE1
 70
     0
  9
$DIMSE2
 70
     0
  9
$DIMTAD
 70
     1
  9
$DIMZIN
 70
     3
  9
$DIMBLK
  1

  9
$DIMASO
 70
     0
  9
$DIMSHO
 70
     1
  9
$DIMPOST
  1
 
  9
$DIMAPOST
  1

  9
$DIMALT
 70
     0
  9
$DIMALTD
 70
     2
  9
$DIMALTF
 40
25.4
  9
$DIMLFAC
 40
1.0
  9
$DIMTOFL
 70
     1
  9
$DIMTVP
 40
0.0
  9
$DIMTIX
 70
     1
  9
$DIMSOXD
 70
     0
  9
$DIMSAH
 70
     0
  9
$DIMBLK1
  1

  9
$DIMBLK2
  1

  9
$DIMSTYLE
  2
FACDIM
  9
$DIMCLRD
 70
     3
  9
$DIMCLRE
 70
     3
  9
$DIMCLRT
 70
   256
  9
$DIMTFAC
 40
0.8
  9
$DIMGAP
 40
0.0312
  9
$DIMJUST
 70
     0
  9
$DIMSD1
 70
     0
  9
$DIMSD2
 70
     0
  9
$DIMTOLJ
 70
     1
  9
$DIMTZIN
 70
     0
  9
$DIMALTZ
 70
     0
  9
$DIMALTTZ
 70
     0
  9
$DIMFIT
 70
     3
  9
$DIMUPT
 70
     0
  9
$DIMUNIT
 70
     6
  9
$DIMDEC
 70
     4
  9
$DIMTDEC
 70
     4
  9
$DIMALTU
 70
     2
  9
$DIMALTTD
 70
     2
  9
$DIMTXSTY
  7
ROMANS
  9
$DIMAUNIT
 70
     0
  9
$LUNITS
 70
     4
  9
$LUPREC
 70
     4
  9
$SKETCHINC
 40
0.1
  9
$FILLETRAD
 40
0.0
  9
$AUNITS
 70
     0
  9
$AUPREC
 70
     0
  9
$MENU
  1
.
  9
$ELEVATION
 40
0.0
  9
$PELEVATION
 40
0.0
  9
$THICKNESS
 40
0.0
  9
$LIMCHECK
 70
     0
  9
$BLIPMODE
 70
     0
  9
$CHAMFERA
 40
0.5
  9
$CHAMFERB
 40
0.5
  9
$CHAMFERC
 40
1.0
  9
$CHAMFERD
 40
0.0
  9
$SKPOLY
 70
     1
  9
$TDCREATE
 40
2451015.345126308
  9
$TDUPDATE
 40
2451561.568301770
  9
$TDINDWG
 40
0.0141750000
  9
$TDUSRTIMER
 40
0.0141750000
  9
$USRTIMER
 70
     1
  9
$ANGBASE
 50
0.0
  9
$ANGDIR
 70
     0
  9
$PDMODE
 70
     0
  9
$PDSIZE
 40
0.0
  9
$PLINEWID
 40
0.0
  9
$COORDS
 70
     2
  9
$SPLFRAME
 70
     0
  9
$SPLINETYPE
 70
     6
  9
$SPLINESEGS
 70
     8
  9
$ATTDIA
 70
     1
  9
$ATTREQ
 70
     1
  9
$HANDLING
 70
     1
  9
$HANDSEED
  5
D7
  9
$SURFTAB1
 70
     6
  9
$SURFTAB2
 70
     6
  9
$SURFTYPE
 70
     6
  9
$SURFU
 70
     6
  9
$SURFV
 70
     6
  9
$UCSNAME
  2

  9
$UCSORG
 10
0.0
 20
0.0
 30
0.0
  9
$UCSXDIR
 10
1.0
 20
0.0
 30
0.0
  9
$UCSYDIR
 10
0.0
 20
1.0
 30
0.0
  9
$PUCSNAME
  2

  9
$PUCSORG
 10
0.0
 20
0.0
 30
0.0
  9
$PUCSXDIR
 10
1.0
 20
0.0
 30
0.0
  9
$PUCSYDIR
 10
0.0
 20
1.0
 30
0.0
  9
$USERI1
 70
     0
  9
$USERI2
 70
     0
  9
$USERI3
 70
     0
  9
$USERI4
 70
     0
  9
$USERI5
 70
     0
  9
$USERR1
 40
96.0
  9
$USERR2
 40
0.0
  9
$USERR3
 40
0.0
  9
$USERR4
 40
0.0
  9
$USERR5
 40
0.0
  9
$WORLDVIEW
 70
     1
  9
$SHADEDGE
 70
     3
  9
$SHADEDIF
 70
    70
  9
$TILEMODE
 70
     1
  9
$MAXACTVP
 70
    48
  9
$PINSBASE
 10
0.0
 20
0.0
 30
0.0
  9
$PLIMCHECK
 70
     0
  9
$PEXTMIN
 10
1.000000E+20
 20
1.000000E+20
 30
1.000000E+20
  9
$PEXTMAX
 10
-1.000000E+20
 20
-1.000000E+20
 30
-1.000000E+20
  9
$PLIMMIN
 10
0.0
 20
0.0
  9
$PLIMMAX
 10
12.0
 20
9.0
  9
$UNITMODE
 70
     0
  9
$VISRETAIN
 70
     1
  9
$PLINEGEN
 70
     1
  9
$PSLTSCALE
 70
     1
  9
$TREEDEPTH
 70
  3020
  9
$PICKSTYLE
 70
     1
  9
$CMLSTYLE
  2
STANDARD
  9
$CMLJUST
 70
     0
  9
$CMLSCALE
 40
1.0
  9
$PROXYGRAPHICS
 70
     1
  9
$MEASUREMENT
 70
     0
  0
ENDSEC
  0
SECTION
  2
CLASSES
  0
CLASS
  1
LWPOLYLINE
  2
AcDbPolyline
  3
"AutoCAD"
 90
        0
280
     0
281
     1
  0
ENDSEC
  0
SECTION
  2
TABLES
  0
TABLE
  2
VPORT
  5
8
100
AcDbSymbolTable
 70
     2
  0
VPORT
  5
D6
100
AcDbSymbolTableRecord
100
AcDbViewportTableRecord
  2
*ACTIVE
 70
     0
 10
0.0
 20
0.0
 11
1.0
 21
1.0
 12
63.698548
 22
39.740897
 13
0.0
 23
0.0
 14
24.0
 24
24.0
 15
96.0
 25
96.0
 16
0.0
 26
0.0
 36
1.0
 17
0.0
 27
0.0
 37
0.0
 40
80.509081
 41
1.700368
 42
50.0
 43
0.0
 44
0.0
 50
0.0
 51
0.0
 71
     0
 72
  2000
 73
     1
 74
     0
 75
     0
 76
     1
 77
     0
 78
     0
  0
ENDTAB
  0
TABLE
  2
LTYPE
  5
5
100
AcDbSymbolTable
 70
     1
  0
LTYPE
  5
13
100
AcDbSymbolTableRecord
100
AcDbLinetypeTableRecord
  2
BYBLOCK
 70
     0
  3

 72
    65
 73
     0
 40
0.0
  0
LTYPE
  5
14
100
AcDbSymbolTableRecord
100
AcDbLinetypeTableRecord
  2
BYLAYER
 70
     0
  3

 72
    65
 73
     0
 40
0.0
  0
LTYPE
  5
15
100
AcDbSymbolTableRecord
100
AcDbLinetypeTableRecord
  2
CONTINUOUS
 70
     0
  3
Solid line
 72
    65
 73
     0
 40
0.0
  0
ENDTAB
  0
TABLE
  2
LAYER
  5
2
100
AcDbSymbolTable
 70
    14
  0
LAYER
  5
F
100
AcDbSymbolTableRecord
100
AcDbLayerTableRecord
  2
0
 70
     0
 62
     7
  6
CONTINUOUS
  0
LAYER
  5
50
100
AcDbSymbolTableRecord
100
AcDbLayerTableRecord
  2
A-DIMS
 70
     0
 62
     1
  6
CONTINUOUS
  0
LAYER
  5
51
100
AcDbSymbolTableRecord
100
AcDbLayerTableRecord
  2
A-TEXT
 70
     0
 62
     2
  6
CONTINUOUS
  0
LAYER
  5
52
100
AcDbSymbolTableRecord
100
AcDbLayerTableRecord
  2
A-PATT
 70
     0
 62
     8
  6
CONTINUOUS
  0
LAYER
  5
53
100
AcDbSymbolTableRecord
100
AcDbLayerTableRecord
  2
A-NOTE
 70
     0
 62
     2
  6
CONTINUOUS
  0
LAYER
  5
54
100
AcDbSymbolTableRecord
100
AcDbLayerTableRecord
  2
A-SYMB
 70
     0
 62
     7
  6
CONTINUOUS
  0
LAYER
  5
55
100
AcDbSymbolTableRecord
100
AcDbLayerTableRecord
  2
A-DETL-01
 70
     0
 62
     1
  6
CONTINUOUS
  0
LAYER
  5
56
100
AcDbSymbolTableRecord
100
AcDbLayerTableRecord
  2
A-DETL-02
 70
     0
 62
     2
  6
CONTINUOUS
  0
LAYER
  5
57
100
AcDbSymbolTableRecord
100
AcDbLayerTableRecord
  2
A-DETL-03
 70
     0
 62
     3
  6
CONTINUOUS
  0
LAYER
  5
58
100
AcDbSymbolTableRecord
100
AcDbLayerTableRecord
  2
A-DETL-04
 70
     0
 62
     4
  6
CONTINUOUS
  0
LAYER
  5
59
100
AcDbSymbolTableRecord
100
AcDbLayerTableRecord
  2
A-DETL-05
 70
     0
 62
     5
  6
CONTINUOUS
  0
LAYER
  5
5A
100
AcDbSymbolTableRecord
100
AcDbLayerTableRecord
  2
A-DETL-06
 70
     0
 62
     6
  6
CONTINUOUS
  0
LAYER
  5
5B
100
AcDbSymbolTableRecord
100
AcDbLayerTableRecord
  2
A-DETL-07
 70
     0
 62
     7
  6
CONTINUOUS
  0
LAYER
  5
5C
100
AcDbSymbolTableRecord
100
AcDbLayerTableRecord
  2
A-DETL-08
 70
     0
 62
     8
  6
CONTINUOUS
  0
ENDTAB
  0
TABLE
  2
STYLE
  5
3
100
AcDbSymbolTable
 70
     2
  0
STYLE
  5
10
100
AcDbSymbolTableRecord
100
AcDbTextStyleTableRecord
  2
STANDARD
 70
     0
 40
0.0
 41
1.0
 50
0.0
 71
     0
 42
1.0
  3
romans.shx
  4

  0
STYLE
  5
CA
100
AcDbSymbolTableRecord
100
AcDbTextStyleTableRecord
  2
ROMANS
 70
     0
 40
0.0
 41
0.81
 50
0.0
 71
     0
 42
12.0
  3
romans.shx
  4

  0
ENDTAB
  0
TABLE
  2
VIEW
  5
6
100
AcDbSymbolTable
 70
     0
  0
ENDTAB
  0
TABLE
  2
UCS
  5
7
100
AcDbSymbolTable
 70
     0
  0
ENDTAB
  0
TABLE
  2
APPID
  5
9
100
AcDbSymbolTable
 70
     1
  0
APPID
  5
11
100
AcDbSymbolTableRecord
100
AcDbRegAppTableRecord
  2
ACAD
 70
     0
  0
ENDTAB
  0
TABLE
  2
DIMSTYLE
  5
A
100
AcDbSymbolTable
 70
     4
  0
DIMSTYLE
105
1D
100
AcDbSymbolTableRecord
100
AcDbDimStyleTableRecord
  2
STANDARD
 70
     0
  3

  4

  5

  6

  7

 40
1.0
 41
0.18
 42
0.0625
 43
0.38
 44
0.18
 45
0.0
 46
0.0
 47
0.0
 48
0.0
140
0.18
141
0.09
142
0.0
143
25.4
144
1.0
145
0.0
146
1.0
147
0.09
 71
     0
 72
     0
 73
     1
 74
     1
 75
     0
 76
     0
 77
     0
 78
     0
170
     0
171
     2
172
     0
173
     0
174
     0
175
     0
176
     0
177
     0
178
     0
270
     2
271
     4
272
     4
273
     2
274
     2
340
0
275
     0
280
     0
281
     0
282
     0
283
     1
284
     0
285
     0
286
     0
287
     3
288
     0
  0
DIMSTYLE
105
CB
100
AcDbSymbolTableRecord
100
AcDbDimStyleTableRecord
  2
FACDIM_METRIC
 70
     0
  3
 mm
  4

  5

  6

  7

 40
0.0
 41
0.125
 42
0.0625
 43
0.0
 44
0.0625
 45
0.125
 46
0.0
 47
0.0
 48
0.0
140
0.125
141
0.09375
142
0.0
143
25.4
144
1.0
145
0.0
146
0.8
147
0.0
 71
     0
 72
     0
 73
     0
 74
     0
 75
     0
 76
     0
 77
     1
 78
     3
170
     0
171
     2
172
     1
173
     0
174
     1
175
     0
176
     3
177
     3
178
   256
270
     6
271
     4
272
     4
273
     2
274
     2
340
CA
275
     0
280
     0
281
     0
282
     0
283
     1
284
     0
285
     0
286
     0
287
     3
288
     0
  0
DIMSTYLE
105
CC
100
AcDbSymbolTableRecord
100
AcDbDimStyleTableRecord
  2
FACDIML
 70
     0
  3
 mm
  4

  5

  6

  7

 40
0.0
 41
0.125
 42
0.0625
 43
0.0
 44
0.0625
 45
0.125
 46
0.0
 47
0.0
 48
0.0
140
0.125
141
0.09375
142
0.0
143
25.4
144
1.0
145
0.0
146
0.8
147
0.0625
 71
     0
 72
     0
 73
     0
 74
     0
 75
     0
 76
     0
 77
     0
 78
     3
170
     0
171
     2
172
     1
173
     0
174
     1
175
     0
176
     3
177
     3
178
   256
270
     6
271
     4
272
     4
273
     2
274
     2
340
CA
275
     0
280
     0
281
     0
282
     0
283
     1
284
     0
285
     0
286
     0
287
     3
288
     0
  0
DIMSTYLE
105
CD
100
AcDbSymbolTableRecord
100
AcDbDimStyleTableRecord
  2
FACDIM
 70
     0
  3
 
  4

  5

  6

  7

 40
0.0
 41
0.125
 42
0.0625
 43
0.0
 44
0.0625
 45
0.125
 46
0.0
 47
0.0
 48
0.0
140
0.125
141
0.09375
142
0.0
143
25.4
144
1.0
145
0.0
146
0.8
147
0.0312
 71
     0
 72
     0
 73
     0
 74
     0
 75
     0
 76
     0
 77
     1
 78
     3
170
     0
171
     2
172
     1
173
     0
174
     1
175
     0
176
     3
177
     3
178
   256
270
     6
271
     4
272
     4
273
     2
274
     2
340
CA
275
     0
280
     0
281
     0
282
     0
283
     1
284
     0
285
     0
286
     0
287
     3
288
     0
  0
ENDTAB
  0
TABLE
  2
BLOCK_RECORD
  5
1
100
AcDbSymbolTable
 70
     2
  0
BLOCK_RECORD
  5
19
100
AcDbSymbolTableRecord
100
AcDbBlockTableRecord
  2
*MODEL_SPACE
  0
BLOCK_RECORD
  5
16
100
AcDbSymbolTableRecord
100
AcDbBlockTableRecord
  2
*PAPER_SPACE
  0
BLOCK_RECORD
  5
BD
100
AcDbSymbolTableRecord
100
AcDbBlockTableRecord
  2
11X17
  0
BLOCK_RECORD
  5
CE
100
AcDbSymbolTableRecord
100
AcDbBlockTableRecord
  2
NEWCOLOR
  0
ENDTAB
  0
ENDSEC
  0
SECTION
  2
BLOCKS
  0
BLOCK
  5
1A
100
AcDbEntity
  8
0
100
AcDbBlockBegin
  2
*MODEL_SPACE
 70
     0
 10
0.0
 20
0.0
 30
0.0
  3
*MODEL_SPACE
  1

  0
ENDBLK
  5
1B
100
AcDbEntity
  8
0
100
AcDbBlockEnd
  0
BLOCK
  5
17
100
AcDbEntity
 67
     1
  8
0
100
AcDbBlockBegin
  2
*PAPER_SPACE
 70
     0
 10
0.0
 20
0.0
 30
0.0
  3
*PAPER_SPACE
  1

  0
ENDBLK
  5
18
100
AcDbEntity
 67
     1
  8
0
100
AcDbBlockEnd
  0
BLOCK
  5
C2
100
AcDbEntity
  8
0
100
AcDbBlockBegin
  2
11X17
 70
     0
 10
0.0
 20
0.0
 30
0.0
  3
11X17
  1

  0
LINE
  5
BE
100
AcDbEntity
  8
0
100
AcDbLine
 10
0.0
 20
0.0
 30
0.0
 11
0.0
 21
9.9375
 31
0.0
  0
LINE
  5
BF
100
AcDbEntity
  8
0
100
AcDbLine
 10
15.9375
 20
0.0
 30
0.0
 11
0.0
 21
0.0
 31
0.0
  0
LINE
  5
C0
100
AcDbEntity
  8
0
100
AcDbLine
 10
0.0
 20
9.9375
 30
0.0
 11
15.9375
 21
9.9375
 31
0.0
  0
LINE
  5
C1
100
AcDbEntity
  8
0
100
AcDbLine
 10
15.9375
 20
9.9375
 30
0.0
 11
15.9375
 21
0.0
 31
0.0
  0
ENDBLK
  5
C3
100
AcDbEntity
  8
0
100
AcDbBlockEnd
  0
BLOCK
  5
CF
100
AcDbEntity
  8
0
100
AcDbBlockBegin
  2
NEWCOLOR
 70
     0
 10
0.0
 20
0.0
 30
0.0
  3
NEWCOLOR
  1

  0
ENDBLK
  5
D0
100
AcDbEntity
  8
0
100
AcDbBlockEnd
  0
ENDSEC
  0
SECTION
  2
ENTITIES
  0
LINE
  5
5D
100
AcDbEntity
  8
A-DETL-04
100
AcDbLine
 10
41.256176
 20
6.870318
 30
0.0
 11
41.256176
 21
22.432818
 31
0.0
  0
LINE
  5
5E
100
AcDbEntity
  8
A-DETL-04
100
AcDbLine
 10
41.256176
 20
22.432818
 30
0.0
 11
46.193676
 21
22.432818
 31
0.0
  0
LINE
  5
5F
100
AcDbEntity
  8
A-DETL-04
100
AcDbLine
 10
43.693676
 20
4.432818
 30
0.0
 11
43.756176
 21
4.432818
 31
0.0
  0
LINE
  5
60
100
AcDbEntity
  8
A-DETL-04
100
AcDbLine
 10
46.193676
 20
6.870318
 30
0.0
 11
46.193676
 21
22.432818
 31
0.0
  0
LINE
  5
61
100
AcDbEntity
  8
A-DETL-04
100
AcDbLine
 10
55.193676
 20
5.858152
 30
0.0
 11
55.193676
 21
22.432818
 31
0.0
  0
LINE
  5
62
100
AcDbEntity
  8
A-DETL-04
100
AcDbLine
 10
50.256176
 20
5.858152
 30
0.0
 11
50.256176
 21
22.432818
 31
0.0
  0
LINE
  5
63
100
AcDbEntity
  8
A-DETL-04
100
AcDbLine
 10
50.256176
 20
22.432818
 30
0.0
 11
55.193676
 21
22.432818
 31
0.0
  0
LINE
  5
65
100
AcDbEntity
  8
A-DETL-04
100
AcDbLine
 10
64.193676
 20
4.432818
 30
0.0
 11
64.193676
 21
22.432818
 31
0.0
  0
LINE
  5
66
100
AcDbEntity
  8
A-DETL-04
100
AcDbLine
 10
59.256176
 20
4.432818
 30
0.0
 11
59.256176
 21
22.432818
 31
0.0
  0
LINE
  5
67
100
AcDbEntity
  8
A-DETL-04
100
AcDbLine
 10
59.256176
 20
4.432818
 30
0.0
 11
64.193676
 21
4.432818
 31
0.0
  0
LINE
  5
68
100
AcDbEntity
  8
A-DETL-04
100
AcDbLine
 10
59.256176
 20
22.432818
 30
0.0
 11
64.193676
 21
22.432818
 31
0.0
  0
LINE
  5
6C
100
AcDbEntity
  8
A-DETL-04
100
AcDbLine
 10
41.256176
 20
31.432818
 30
0.0
 11
41.256176
 21
49.432818
 31
0.0
  0
LINE
  5
6D
100
AcDbEntity
  8
A-DETL-04
100
AcDbLine
 10
46.193676
 20
34.283485
 30
0.0
 11
46.193676
 21
49.432818
 31
0.0
  0
LINE
  5
6E
100
AcDbEntity
  8
A-DETL-04
100
AcDbLine
 10
41.256176
 20
49.432818
 30
0.0
 11
46.193676
 21
49.432818
 31
0.0
  0
LINE
  5
6F
100
AcDbEntity
  8
A-DETL-04
100
AcDbLine
 10
59.256176
 20
33.570819
 30
0.0
 11
59.256176
 21
49.432818
 31
0.0
  0
LINE
  5
70
100
AcDbEntity
  8
A-DETL-04
100
AcDbLine
 10
64.193676
 20
33.570819
 30
0.0
 11
64.193676
 21
49.432818
 31
0.0
  0
LINE
  5
71
100
AcDbEntity
  8
A-DETL-04
100
AcDbLine
 10
55.193676
 20
33.901568
 30
0.0
 11
55.193676
 21
49.432818
 31
0.0
  0
LINE
  5
72
100
AcDbEntity
  8
A-DETL-04
100
AcDbLine
 10
50.256176
 20
33.901568
 30
0.0
 11
50.256176
 21
49.432818
 31
0.0
  0
LINE
  5
73
100
AcDbEntity
  8
A-DETL-04
100
AcDbLine
 10
59.256176
 20
49.432818
 30
0.0
 11
64.193676
 21
49.432818
 31
0.0
  0
LINE
  5
74
100
AcDbEntity
  8
A-DETL-04
100
AcDbLine
 10
50.256176
 20
49.432818
 30
0.0
 11
55.193676
 21
49.432818
 31
0.0
  0
LINE
  5
75
100
AcDbEntity
  8
A-DETL-04
100
AcDbLine
 10
50.256176
 20
76.432818
 30
0.0
 11
55.193676
 21
76.432818
 31
0.0
  0
LINE
  5
76
100
AcDbEntity
  8
A-DETL-04
100
AcDbLine
 10
59.256176
 20
76.432818
 30
0.0
 11
64.193676
 21
76.432818
 31
0.0
  0
LINE
  5
77
100
AcDbEntity
  8
A-DETL-04
100
AcDbLine
 10
50.256176
 20
60.182818
 30
0.0
 11
50.256176
 21
76.432818
 31
0.0
  0
LINE
  5
78
100
AcDbEntity
  8
A-DETL-04
100
AcDbLine
 10
55.193676
 20
60.182818
 30
0.0
 11
55.193676
 21
76.432818
 31
0.0
  0
LINE
  5
79
100
AcDbEntity
  8
A-DETL-04
100
AcDbLine
 10
64.193676
 20
62.708819
 30
0.0
 11
64.193676
 21
76.432818
 31
0.0
  0
LINE
  5
7A
100
AcDbEntity
  8
A-DETL-04
100
AcDbLine
 10
59.256176
 20
62.708819
 30
0.0
 11
59.256176
 21
76.432818
 31
0.0
  0
LINE
  5
7B
100
AcDbEntity
  8
A-DETL-04
100
AcDbLine
 10
41.256176
 20
76.432818
 30
0.0
 11
46.193676
 21
76.432818
 31
0.0
  0
LINE
  5
7C
100
AcDbEntity
  8
A-DETL-04
100
AcDbLine
 10
46.193676
 20
59.932818
 30
0.0
 11
46.193676
 21
76.432818
 31
0.0
  0
LINE
  5
7D
100
AcDbEntity
  8
A-DETL-04
100
AcDbLine
 10
41.256176
 20
59.932818
 30
0.0
 11
41.256176
 21
76.432818
 31
0.0
  0
LINE
  5
80
100
AcDbEntity
  8
A-DETL-04
100
AcDbLine
 10
52.006176
 20
58.432818
 30
0.0
 11
53.443676
 21
58.432818
 31
0.0
  0
TEXT
  5
82
100
AcDbEntity
  8
A-TEXT
100
AcDbText
 10
39.796354
 20
55.932818
 30
0.0
 40
1.0
  1
FISHSCALE
 72
     1
 11
43.724926
 21
55.932818
 31
0.0
100
AcDbText
  0
TEXT
  5
83
100
AcDbEntity
  8
A-TEXT
100
AcDbText
 10
48.986831
 20
55.932818
 30
0.0
 40
1.0
  1
HALFCOVE
 72
     1
 11
52.724926
 21
55.932818
 31
0.0
100
AcDbText
  0
TEXT
  5
84
100
AcDbEntity
  8
A-TEXT
100
AcDbText
 10
58.463021
 20
55.932818
 30
0.0
 40
1.0
  1
DIAMOND
 72
     1
 11
61.724926
 21
55.932818
 31
0.0
100
AcDbText
  0
TEXT
  5
85
100
AcDbEntity
  8
A-TEXT
100
AcDbText
 10
40.153497
 20
28.932818
 30
0.0
 40
1.0
  1
DIAGONAL
 72
     1
 11
43.724926
 21
28.932818
 31
0.0
100
AcDbText
  0
TEXT
  5
86
100
AcDbEntity
  8
A-TEXT
100
AcDbText
 10
50.129688
 20
28.932818
 30
0.0
 40
1.0
  1
ROUND
 72
     1
 11
52.724926
 21
28.932818
 31
0.0
100
AcDbText
  0
TEXT
  5
87
100
AcDbEntity
  8
A-TEXT
100
AcDbText
 10
57.463021
 20
28.932818
 30
0.0
 40
1.0
  1
OCTAGONAL
 72
     1
 11
61.724926
 21
28.932818
 31
0.0
100
AcDbText
  0
TEXT
  5
88
100
AcDbEntity
  8
A-TEXT
100
AcDbText
 10
41.224926
 20
1.932818
 30
0.0
 40
1.0
  1
ARROW
 72
     1
 11
43.724926
 21
1.932818
 31
0.0
100
AcDbText
  0
TEXT
  5
89
100
AcDbEntity
  8
A-TEXT
100
AcDbText
 10
48.391593
 20
1.932818
 30
0.0
 40
1.0
  1
HEXAGONAL
 72
     1
 11
52.724926
 21
1.932818
 31
0.0
100
AcDbText
  0
TEXT
  5
8A
100
AcDbEntity
  8
A-TEXT
100
AcDbText
 10
58.796354
 20
1.932818
 30
0.0
 40
1.0
  1
SQUARE
 72
     1
 11
61.724926
 21
1.932818
 31
0.0
100
AcDbText
  0
ARC
  5
8B
100
AcDbEntity
  8
A-DETL-04
100
AcDbCircle
 10
52.724926
 20
33.901568
 30
0.0
 40
2.46875
100
AcDbArc
 50
180.0
 51
0.0
  0
LINE
  5
8D
100
AcDbEntity
  8
A-DETL-04
100
AcDbLine
 10
59.256176
 20
33.570819
 30
0.0
 11
60.490551
 21
31.432818
 31
0.0
  0
LINE
  5
8E
100
AcDbEntity
  8
A-DETL-04
100
AcDbLine
 10
60.490551
 20
31.432818
 30
0.0
 11
62.959301
 21
31.432818
 31
0.0
  0
LINE
  5
8F
100
AcDbEntity
  8
A-DETL-04
100
AcDbLine
 10
62.959301
 20
31.432818
 30
0.0
 11
64.193676
 21
33.570819
 31
0.0
  0
LINE
  5
97
100
AcDbEntity
  8
A-DETL-04
100
AcDbLine
 10
50.256176
 20
5.858152
 30
0.0
 11
52.724926
 21
4.432818
 31
0.0
  0
LINE
  5
98
100
AcDbEntity
  8
A-DETL-04
100
AcDbLine
 10
52.724926
 20
4.432818
 30
0.0
 11
55.193676
 21
5.858152
 31
0.0
  0
ARC
  5
9E
100
AcDbEntity
  8
A-DETL-04
100
AcDbCircle
 10
46.193676
 20
4.432818
 30
0.0
 40
2.4375
100
AcDbArc
 50
90.0
 51
180.0
  0
ARC
  5
9F
100
AcDbEntity
  8
A-DETL-04
100
AcDbCircle
 10
41.256176
 20
4.432818
 30
0.0
 40
2.4375
100
AcDbArc
 50
0.0
 51
90.0
  0
LINE
  5
A2
100
AcDbEntity
  8
A-DETL-04
100
AcDbLine
 10
41.256176
 20
31.432818
 30
0.0
 11
46.193676
 21
34.283485
 31
0.0
  0
ARC
  5
A7
100
AcDbEntity
  8
A-DETL-04
100
AcDbCircle
 10
43.724926
 20
61.214394
 30
0.0
 40
2.781576
100
AcDbArc
 50
207.434693
 51
332.565307
  0
LINE
  5
A9
100
AcDbEntity
  8
A-DETL-04
100
AcDbLine
 10
61.724926
 20
58.432818
 30
0.0
 11
64.193676
 21
62.708819
 31
0.0
  0
LINE
  5
AA
100
AcDbEntity
  8
A-DETL-04
100
AcDbLine
 10
61.724926
 20
58.432818
 30
0.0
 11
59.256176
 21
62.708819
 31
0.0
  0
ARC
  5
B2
100
AcDbEntity
  8
A-DETL-04
100
AcDbCircle
 10
55.193676
 20
58.432818
 30
0.0
 40
1.75
100
AcDbArc
 50
90.0
 51
180.0
  0
ARC
  5
B3
100
AcDbEntity
  8
A-DETL-04
100
AcDbCircle
 10
50.256176
 20
58.432818
 30
0.0
 40
1.75
100
AcDbArc
 50
0.0
 51
90.0
  0
INSERT
  5
C4
100
AcDbEntity
  8
0
100
AcDbBlockReference
  2
11X17
 10
0.0
 20
0.0
 30
0.0
 41
8.0
 42
8.0
 43
8.0
  0
INSERT
  5
D1
100
AcDbEntity
  8
0
100
AcDbBlockReference
  2
NEWCOLOR
 10
0.0
 20
0.0
 30
0.0
  0
ENDSEC
  0
SECTION
  2
OBJECTS
  0
DICTIONARY
  5
C
100
AcDbDictionary
  3
ACAD_GROUP
350
D
  3
ACAD_MLINESTYLE
350
E
  0
DICTIONARY
  5
D
102
{ACAD_REACTORS
330
C
102
}
100
AcDbDictionary
  0
DICTIONARY
  5
E
102
{ACAD_REACTORS
330
C
102
}
100
AcDbDictionary
  3
STANDARD
350
1C
  0
MLINESTYLE
  5
1C
102
{ACAD_REACTORS
330
E
102
}
100
AcDbMlineStyle
  2
STANDARD
 70
     0
  3

 62
     0
 51
90.0
 52
90.0
 71
     2
 49
0.5
 62
   256
  6
BYLAYER
 49
-0.5
 62
   256
  6
BYLAYER
  0
ENDSEC
  0
EOF
