  0
SECTION
  2
HEADER
  9
$ACADVER
  1
AC1014
  9
$ACADMAINTVER
 70
     0
  9
$DWGCODEPAGE
  3
ANSI_1252
  9
$INSBASE
 10
0.0
 20
0.0
 30
0.0
  9
$EXTMIN
 10
-1.0
 20
0.0
 30
0.0
  9
$EXTMAX
 10
96.0
 20
9.0
 30
0.0
  9
$LIMMIN
 10
0.0
 20
0.0
  9
$LIMMAX
 10
3456.096
 20
2304.096
  9
$ORTHOMODE
 70
     1
  9
$REGENMODE
 70
     1
  9
$FILLMODE
 70
     1
  9
$QTEXTMODE
 70
     0
  9
$MIRRTEXT
 70
     1
  9
$DRAGMODE
 70
     2
  9
$LTSCALE
 40
96.0
  9
$OSMODE
 70
     1
  9
$ATTMODE
 70
     1
  9
$TEXTSIZE
 40
12.0
  9
$TRACEWID
 40
6.0
  9
$TEXTSTYLE
  7
ROMANS
  9
$CLAYER
  8
0
  9
$CELTYPE
  6
BYLAYER
  9
$CECOLOR
 62
   256
  9
$CELTSCALE
 40
1.0
  9
$DELOBJ
 70
     1
  9
$DISPSILH
 70
     0
  9
$DIMSCALE
 40
96.0
  9
$DIMASZ
 40
0.125
  9
$DIMEXO
 40
0.0625
  9
$DIMDLI
 40
0.0
  9
$DIMRND
 40
0.125
  9
$DIMDLE
 40
0.0
  9
$DIMEXE
 40
0.0625
  9
$DIMTP
 40
0.0
  9
$DIMTM
 40
0.0
  9
$DIMTXT
 40
0.125
  9
$DIMCEN
 40
0.09375
  9
$DIMTSZ
 40
0.0
  9
$DIMTOL
 70
     0
  9
$DIMLIM
 70
     0
  9
$DIMTIH
 70
     0
  9
$DIMTOH
 70
     0
  9
$DIMSE1
 70
     0
  9
$DIMSE2
 70
     0
  9
$DIMTAD
 70
     1
  9
$DIMZIN
 70
     3
  9
$DIMBLK
  1

  9
$DIMASO
 70
     0
  9
$DIMSHO
 70
     1
  9
$DIMPOST
  1
 
  9
$DIMAPOST
  1

  9
$DIMALT
 70
     0
  9
$DIMALTD
 70
     2
  9
$DIMALTF
 40
25.4
  9
$DIMLFAC
 40
1.0
  9
$DIMTOFL
 70
     1
  9
$DIMTVP
 40
0.0
  9
$DIMTIX
 70
     1
  9
$DIMSOXD
 70
     0
  9
$DIMSAH
 70
     0
  9
$DIMBLK1
  1

  9
$DIMBLK2
  1

  9
$DIMSTYLE
  2
FACDIM
  9
$DIMCLRD
 70
     3
  9
$DIMCLRE
 70
     3
  9
$DIMCLRT
 70
   256
  9
$DIMTFAC
 40
0.8
  9
$DIMGAP
 40
0.0312
  9
$DIMJUST
 70
     0
  9
$DIMSD1
 70
     0
  9
$DIMSD2
 70
     0
  9
$DIMTOLJ
 70
     1
  9
$DIMTZIN
 70
     0
  9
$DIMALTZ
 70
     0
  9
$DIMALTTZ
 70
     0
  9
$DIMFIT
 70
     3
  9
$DIMUPT
 70
     0
  9
$DIMUNIT
 70
     6
  9
$DIMDEC
 70
     4
  9
$DIMTDEC
 70
     4
  9
$DIMALTU
 70
     2
  9
$DIMALTTD
 70
     2
  9
$DIMTXSTY
  7
ROMANS
  9
$DIMAUNIT
 70
     0
  9
$LUNITS
 70
     4
  9
$LUPREC
 70
     4
  9
$SKETCHINC
 40
0.1
  9
$FILLETRAD
 40
0.0
  9
$AUNITS
 70
     0
  9
$AUPREC
 70
     2
  9
$MENU
  1
.
  9
$ELEVATION
 40
0.0
  9
$PELEVATION
 40
0.0
  9
$THICKNESS
 40
0.0
  9
$LIMCHECK
 70
     0
  9
$BLIPMODE
 70
     0
  9
$CHAMFERA
 40
0.5
  9
$CHAMFERB
 40
0.5
  9
$CHAMFERC
 40
1.0
  9
$CHAMFERD
 40
0.0
  9
$SKPOLY
 70
     1
  9
$TDCREATE
 40
2450984.554779178
  9
$TDUPDATE
 40
2451561.566946226
  9
$TDINDWG
 40
0.5928427662
  9
$TDUSRTIMER
 40
0.5928427662
  9
$USRTIMER
 70
     1
  9
$ANGBASE
 50
0.0
  9
$ANGDIR
 70
     0
  9
$PDMODE
 70
     0
  9
$PDSIZE
 40
0.0
  9
$PLINEWID
 40
0.0
  9
$COORDS
 70
     2
  9
$SPLFRAME
 70
     0
  9
$SPLINETYPE
 70
     6
  9
$SPLINESEGS
 70
     8
  9
$ATTDIA
 70
     1
  9
$ATTREQ
 70
     1
  9
$HANDLING
 70
     1
  9
$HANDSEED
  5
D7
  9
$SURFTAB1
 70
     6
  9
$SURFTAB2
 70
     6
  9
$SURFTYPE
 70
     6
  9
$SURFU
 70
     6
  9
$SURFV
 70
     6
  9
$UCSNAME
  2

  9
$UCSORG
 10
0.0
 20
0.0
 30
0.0
  9
$UCSXDIR
 10
1.0
 20
0.0
 30
0.0
  9
$UCSYDIR
 10
0.0
 20
1.0
 30
0.0
  9
$PUCSNAME
  2

  9
$PUCSORG
 10
0.0
 20
0.0
 30
0.0
  9
$PUCSXDIR
 10
1.0
 20
0.0
 30
0.0
  9
$PUCSYDIR
 10
0.0
 20
1.0
 30
0.0
  9
$USERI1
 70
     0
  9
$USERI2
 70
     0
  9
$USERI3
 70
     0
  9
$USERI4
 70
     0
  9
$USERI5
 70
     0
  9
$USERR1
 40
96.0
  9
$USERR2
 40
0.0
  9
$USERR3
 40
0.0
  9
$USERR4
 40
0.0
  9
$USERR5
 40
0.0
  9
$WORLDVIEW
 70
     1
  9
$SHADEDGE
 70
     3
  9
$SHADEDIF
 70
    70
  9
$TILEMODE
 70
     1
  9
$MAXACTVP
 70
    48
  9
$PINSBASE
 10
0.0
 20
0.0
 30
0.0
  9
$PLIMCHECK
 70
     0
  9
$PEXTMIN
 10
1.000000E+20
 20
1.000000E+20
 30
1.000000E+20
  9
$PEXTMAX
 10
-1.000000E+20
 20
-1.000000E+20
 30
-1.000000E+20
  9
$PLIMMIN
 10
0.0
 20
0.0
  9
$PLIMMAX
 10
12.0
 20
9.0
  9
$UNITMODE
 70
     0
  9
$VISRETAIN
 70
     1
  9
$PLINEGEN
 70
     1
  9
$PSLTSCALE
 70
     1
  9
$TREEDEPTH
 70
  3020
  9
$PICKSTYLE
 70
     1
  9
$CMLSTYLE
  2
STANDARD
  9
$CMLJUST
 70
     0
  9
$CMLSCALE
 40
1.0
  9
$PROXYGRAPHICS
 70
     1
  9
$MEASUREMENT
 70
     0
  0
ENDSEC
  0
SECTION
  2
CLASSES
  0
CLASS
  1
LWPOLYLINE
  2
AcDbPolyline
  3
"AutoCAD"
 90
        0
280
     0
281
     1
  0
CLASS
  1
DICTIONARYVAR
  2
AcDbDictionaryVar
  3
"AutoCAD"
 90
        0
280
     0
281
     0
  0
CLASS
  1
HATCH
  2
AcDbHatch
  3
"ACAD_SEDONA"
 90
        0
280
     0
281
     1
  0
CLASS
  1
XRECORD
  2
AcDbXrecord
  3
"<Built In>"
 90
        0
280
     0
281
     0
  0
ENDSEC
  0
SECTION
  2
TABLES
  0
TABLE
  2
VPORT
  5
12
100
AcDbSymbolTable
 70
     2
  0
VPORT
  5
D6
100
AcDbSymbolTableRecord
100
AcDbViewportTableRecord
  2
*ACTIVE
 70
     0
 10
0.0
 20
0.0
 11
1.0
 21
1.0
 12
47.541974
 22
4.491447
 13
126.431726
 23
84.642504
 14
24.0
 24
24.0
 15
96.0
 25
96.0
 16
0.0
 26
0.0
 36
1.0
 17
0.0
 27
0.0
 37
0.0
 40
57.60893
 41
1.700368
 42
50.0
 43
0.0
 44
0.0
 50
0.0
 51
0.0
 71
     0
 72
  2000
 73
     1
 74
     0
 75
     0
 76
     1
 77
     0
 78
     1
  0
ENDTAB
  0
TABLE
  2
LTYPE
  5
D
100
AcDbSymbolTable
 70
     1
  0
LTYPE
  5
E
100
AcDbSymbolTableRecord
100
AcDbLinetypeTableRecord
  2
BYBLOCK
 70
     0
  3

 72
    65
 73
     0
 40
0.0
  0
LTYPE
  5
F
100
AcDbSymbolTableRecord
100
AcDbLinetypeTableRecord
  2
BYLAYER
 70
     0
  3

 72
    65
 73
     0
 40
0.0
  0
LTYPE
  5
5
100
AcDbSymbolTableRecord
100
AcDbLinetypeTableRecord
  2
CONTINUOUS
 70
     0
  3
Solid line
 72
    65
 73
     0
 40
0.0
  0
ENDTAB
  0
TABLE
  2
LAYER
  5
A
100
AcDbSymbolTable
 70
     3
  0
LAYER
  5
4
100
AcDbSymbolTableRecord
100
AcDbLayerTableRecord
  2
0
 70
     0
 62
     7
  6
CONTINUOUS
  0
LAYER
  5
1B
100
AcDbSymbolTableRecord
100
AcDbLayerTableRecord
  2
A-WALL-SHKE
 70
     0
 62
     7
  6
CONTINUOUS
  0
LAYER
  5
64
100
AcDbSymbolTableRecord
100
AcDbLayerTableRecord
  2
1
 70
     0
 62
     2
  6
CONTINUOUS
  0
ENDTAB
  0
TABLE
  2
STYLE
  5
B
100
AcDbSymbolTable
 70
     2
  0
STYLE
  5
C
100
AcDbSymbolTableRecord
100
AcDbTextStyleTableRecord
  2
STANDARD
 70
     0
 40
0.0
 41
0.81
 50
0.0
 71
     0
 42
1.5
  3
romans.shx
  4

  0
STYLE
  5
C9
100
AcDbSymbolTableRecord
100
AcDbTextStyleTableRecord
  2
ROMANS
 70
     0
 40
0.0
 41
0.81
 50
0.0
 71
     0
 42
12.0
  3
romans.shx
  4

  0
ENDTAB
  0
TABLE
  2
VIEW
  5
10
100
AcDbSymbolTable
 70
     0
  0
ENDTAB
  0
TABLE
  2
UCS
  5
11
100
AcDbSymbolTable
 70
     0
  0
ENDTAB
  0
TABLE
  2
APPID
  5
14
100
AcDbSymbolTable
 70
     1
  0
APPID
  5
15
100
AcDbSymbolTableRecord
100
AcDbRegAppTableRecord
  2
ACAD
 70
     0
  0
ENDTAB
  0
TABLE
  2
DIMSTYLE
  5
16
100
AcDbSymbolTable
 70
     4
  0
DIMSTYLE
105
1D
100
AcDbSymbolTableRecord
100
AcDbDimStyleTableRecord
  2
STANDARD
 70
     0
  3

  4

  5

  6

  7

 40
1.0
 41
0.18
 42
0.0625
 43
0.38
 44
0.18
 45
0.0
 46
0.0
 47
0.0
 48
0.0
140
0.18
141
0.09
142
0.0
143
25.4
144
1.0
145
0.0
146
1.0
147
0.09
 71
     0
 72
     0
 73
     1
 74
     1
 75
     0
 76
     0
 77
     0
 78
     0
170
     0
171
     2
172
     0
173
     0
174
     0
175
     0
176
     0
177
     0
178
     0
270
     2
271
     4
272
     4
273
     2
274
     2
340
C
275
     0
280
     0
281
     0
282
     0
283
     1
284
     0
285
     0
286
     0
287
     3
288
     0
  0
DIMSTYLE
105
CA
100
AcDbSymbolTableRecord
100
AcDbDimStyleTableRecord
  2
FACDIM_METRIC
 70
     0
  3
 mm
  4

  5

  6

  7

 40
0.0
 41
0.125
 42
0.0625
 43
0.0
 44
0.0625
 45
0.125
 46
0.0
 47
0.0
 48
0.0
140
0.125
141
0.09375
142
0.0
143
25.4
144
1.0
145
0.0
146
0.8
147
0.0
 71
     0
 72
     0
 73
     0
 74
     0
 75
     0
 76
     0
 77
     1
 78
     3
170
     0
171
     2
172
     1
173
     0
174
     1
175
     0
176
     3
177
     3
178
   256
270
     6
271
     4
272
     4
273
     2
274
     2
340
C9
275
     0
280
     0
281
     0
282
     0
283
     1
284
     0
285
     0
286
     0
287
     3
288
     0
  0
DIMSTYLE
105
CB
100
AcDbSymbolTableRecord
100
AcDbDimStyleTableRecord
  2
FACDIML
 70
     0
  3
 mm
  4

  5

  6

  7

 40
0.0
 41
0.125
 42
0.0625
 43
0.0
 44
0.0625
 45
0.125
 46
0.0
 47
0.0
 48
0.0
140
0.125
141
0.09375
142
0.0
143
25.4
144
1.0
145
0.0
146
0.8
147
0.0625
 71
     0
 72
     0
 73
     0
 74
     0
 75
     0
 76
     0
 77
     0
 78
     3
170
     0
171
     2
172
     1
173
     0
174
     1
175
     0
176
     3
177
     3
178
   256
270
     6
271
     4
272
     4
273
     2
274
     2
340
C9
275
     0
280
     0
281
     0
282
     0
283
     1
284
     0
285
     0
286
     0
287
     3
288
     0
  0
DIMSTYLE
105
CC
100
AcDbSymbolTableRecord
100
AcDbDimStyleTableRecord
  2
FACDIM
 70
     0
  3
 
  4

  5

  6

  7

 40
0.0
 41
0.125
 42
0.0625
 43
0.0
 44
0.0625
 45
0.125
 46
0.0
 47
0.0
 48
0.0
140
0.125
141
0.09375
142
0.0
143
25.4
144
1.0
145
0.0
146
0.8
147
0.0312
 71
     0
 72
     0
 73
     0
 74
     0
 75
     0
 76
     0
 77
     1
 78
     3
170
     0
171
     2
172
     1
173
     0
174
     1
175
     0
176
     3
177
     3
178
   256
270
     6
271
     4
272
     4
273
     2
274
     2
340
C9
275
     0
280
     0
281
     0
282
     0
283
     1
284
     0
285
     0
286
     0
287
     3
288
     0
  0
ENDTAB
  0
TABLE
  2
BLOCK_RECORD
  5
1
100
AcDbSymbolTable
 70
     1
  0
BLOCK_RECORD
  5
2
100
AcDbSymbolTableRecord
100
AcDbBlockTableRecord
  2
*MODEL_SPACE
  0
BLOCK_RECORD
  5
7
100
AcDbSymbolTableRecord
100
AcDbBlockTableRecord
  2
*PAPER_SPACE
  0
BLOCK_RECORD
  5
CD
100
AcDbSymbolTableRecord
100
AcDbBlockTableRecord
  2
NEWCOLOR
  0
ENDTAB
  0
ENDSEC
  0
SECTION
  2
BLOCKS
  0
BLOCK
  5
3
100
AcDbEntity
  8
0
100
AcDbBlockBegin
  2
*MODEL_SPACE
 70
     0
 10
0.0
 20
0.0
 30
0.0
  3
*MODEL_SPACE
  1

  0
ENDBLK
  5
6
100
AcDbEntity
  8
0
100
AcDbBlockEnd
  0
BLOCK
  5
8
100
AcDbEntity
 67
     1
  8
0
100
AcDbBlockBegin
  2
*PAPER_SPACE
 70
     0
 10
0.0
 20
0.0
 30
0.0
  3
*PAPER_SPACE
  1

  0
ENDBLK
  5
9
100
AcDbEntity
 67
     1
  8
0
100
AcDbBlockEnd
  0
BLOCK
  5
CE
100
AcDbEntity
  8
0
100
AcDbBlockBegin
  2
NEWCOLOR
 70
     0
 10
0.0
 20
0.0
 30
0.0
  3
NEWCOLOR
  1

  0
ENDBLK
  5
CF
100
AcDbEntity
  8
0
100
AcDbBlockEnd
  0
ENDSEC
  0
SECTION
  2
ENTITIES
  0
LINE
  5
1E
100
AcDbEntity
  8
A-WALL-SHKE
100
AcDbLine
 10
95.0
 20
9.0
 30
0.0
 11
-1.0
 21
9.0
 31
0.0
  0
LINE
  5
1F
100
AcDbEntity
  8
A-WALL-SHKE
100
AcDbLine
 10
96.0
 20
4.5
 30
0.0
 11
-1.0
 21
4.5
 31
0.0
  0
LINE
  5
20
100
AcDbEntity
  8
A-WALL-SHKE
100
AcDbLine
 10
96.0
 20
0.0
 30
0.0
 11
0.0
 21
0.0
 31
0.0
  0
LINE
  5
21
100
AcDbEntity
  8
A-WALL-SHKE
100
AcDbLine
 10
0.0
 20
4.5
 30
0.0
 11
0.0
 21
0.0
 31
0.0
  0
LINE
  5
22
100
AcDbEntity
  8
A-WALL-SHKE
100
AcDbLine
 10
-1.0
 20
9.0
 30
0.0
 11
-1.0
 21
4.5
 31
0.0
  0
LINE
  5
2B
100
AcDbEntity
  8
A-WALL-SHKE
100
AcDbLine
 10
7.0
 20
4.5
 30
0.0
 11
7.0
 21
0.0
 31
0.0
  0
LINE
  5
2C
100
AcDbEntity
  8
A-WALL-SHKE
100
AcDbLine
 10
7.1875
 20
4.5
 30
0.0
 11
7.1875
 21
0.0
 31
0.0
  0
LINE
  5
2D
100
AcDbEntity
  8
A-WALL-SHKE
100
AcDbLine
 10
9.021437
 20
9.0
 30
0.0
 11
9.021437
 21
4.5
 31
0.0
  0
LINE
  5
2E
100
AcDbEntity
  8
A-WALL-SHKE
100
AcDbLine
 10
9.208937
 20
9.0
 30
0.0
 11
9.208937
 21
4.5
 31
0.0
  0
LINE
  5
4B
100
AcDbEntity
  8
A-WALL-SHKE
100
AcDbLine
 10
96.0
 20
4.5
 30
0.0
 11
96.0
 21
0.0
 31
0.0
  0
LINE
  5
5D
100
AcDbEntity
  8
A-WALL-SHKE
100
AcDbLine
 10
95.0
 20
9.0
 30
0.0
 11
95.0
 21
4.5
 31
0.0
  0
LINE
  5
8B
100
AcDbEntity
  8
A-WALL-SHKE
100
AcDbLine
 10
16.208937
 20
9.0
 30
0.0
 11
16.208937
 21
4.5
 31
0.0
  0
LINE
  5
8C
100
AcDbEntity
  8
A-WALL-SHKE
100
AcDbLine
 10
16.396437
 20
9.0
 30
0.0
 11
16.396437
 21
4.5
 31
0.0
  0
LINE
  5
8D
100
AcDbEntity
  8
A-WALL-SHKE
100
AcDbLine
 10
22.396437
 20
9.0
 30
0.0
 11
22.396437
 21
4.5
 31
0.0
  0
LINE
  5
8E
100
AcDbEntity
  8
A-WALL-SHKE
100
AcDbLine
 10
22.583937
 20
9.0
 30
0.0
 11
22.583937
 21
4.5
 31
0.0
  0
LINE
  5
8F
100
AcDbEntity
  8
A-WALL-SHKE
100
AcDbLine
 10
30.583937
 20
9.0
 30
0.0
 11
30.583937
 21
4.5
 31
0.0
  0
LINE
  5
90
100
AcDbEntity
  8
A-WALL-SHKE
100
AcDbLine
 10
30.771437
 20
9.0
 30
0.0
 11
30.771437
 21
4.5
 31
0.0
  0
LINE
  5
91
100
AcDbEntity
  8
A-WALL-SHKE
100
AcDbLine
 10
38.771437
 20
9.0
 30
0.0
 11
38.771437
 21
4.5
 31
0.0
  0
LINE
  5
92
100
AcDbEntity
  8
A-WALL-SHKE
100
AcDbLine
 10
38.958937
 20
9.0
 30
0.0
 11
38.958937
 21
4.5
 31
0.0
  0
LINE
  5
93
100
AcDbEntity
  8
A-WALL-SHKE
100
AcDbLine
 10
44.958937
 20
9.0
 30
0.0
 11
44.958937
 21
4.5
 31
0.0
  0
LINE
  5
94
100
AcDbEntity
  8
A-WALL-SHKE
100
AcDbLine
 10
45.146437
 20
9.0
 30
0.0
 11
45.146437
 21
4.5
 31
0.0
  0
LINE
  5
95
100
AcDbEntity
  8
A-WALL-SHKE
100
AcDbLine
 10
52.146437
 20
9.0
 30
0.0
 11
52.146437
 21
4.5
 31
0.0
  0
LINE
  5
96
100
AcDbEntity
  8
A-WALL-SHKE
100
AcDbLine
 10
52.333937
 20
9.0
 30
0.0
 11
52.333937
 21
4.5
 31
0.0
  0
LINE
  5
97
100
AcDbEntity
  8
A-WALL-SHKE
100
AcDbLine
 10
60.333937
 20
9.0
 30
0.0
 11
60.333937
 21
4.5
 31
0.0
  0
LINE
  5
98
100
AcDbEntity
  8
A-WALL-SHKE
100
AcDbLine
 10
60.521437
 20
9.0
 30
0.0
 11
60.521437
 21
4.5
 31
0.0
  0
LINE
  5
99
100
AcDbEntity
  8
A-WALL-SHKE
100
AcDbLine
 10
69.521437
 20
9.0
 30
0.0
 11
69.521437
 21
4.5
 31
0.0
  0
LINE
  5
9A
100
AcDbEntity
  8
A-WALL-SHKE
100
AcDbLine
 10
69.708937
 20
9.0
 30
0.0
 11
69.708937
 21
4.5
 31
0.0
  0
LINE
  5
9B
100
AcDbEntity
  8
A-WALL-SHKE
100
AcDbLine
 10
77.708937
 20
9.0
 30
0.0
 11
77.708937
 21
4.5
 31
0.0
  0
LINE
  5
9D
100
AcDbEntity
  8
A-WALL-SHKE
100
AcDbLine
 10
77.896437
 20
9.0
 30
0.0
 11
77.896437
 21
4.5
 31
0.0
  0
LINE
  5
A0
100
AcDbEntity
  8
A-WALL-SHKE
100
AcDbLine
 10
81.896437
 20
9.0
 30
0.0
 11
81.896437
 21
4.5
 31
0.0
  0
LINE
  5
A1
100
AcDbEntity
  8
A-WALL-SHKE
100
AcDbLine
 10
82.083937
 20
9.0
 30
0.0
 11
82.083937
 21
4.5
 31
0.0
  0
LINE
  5
A2
100
AcDbEntity
  8
A-WALL-SHKE
100
AcDbLine
 10
88.083937
 20
9.0
 30
0.0
 11
88.083937
 21
4.5
 31
0.0
  0
LINE
  5
A3
100
AcDbEntity
  8
A-WALL-SHKE
100
AcDbLine
 10
88.271437
 20
9.0
 30
0.0
 11
88.271437
 21
4.5
 31
0.0
  0
LINE
  5
A4
100
AcDbEntity
  8
A-WALL-SHKE
100
AcDbLine
 10
11.1875
 20
4.5
 30
0.0
 11
11.1875
 21
0.0
 31
0.0
  0
LINE
  5
A6
100
AcDbEntity
  8
A-WALL-SHKE
100
AcDbLine
 10
11.375
 20
4.5
 30
0.0
 11
11.375
 21
0.0
 31
0.0
  0
LINE
  5
A7
100
AcDbEntity
  8
A-WALL-SHKE
100
AcDbLine
 10
18.375
 20
4.5
 30
0.0
 11
18.375
 21
0.0
 31
0.0
  0
LINE
  5
A8
100
AcDbEntity
  8
A-WALL-SHKE
100
AcDbLine
 10
18.5625
 20
4.5
 30
0.0
 11
18.5625
 21
0.0
 31
0.0
  0
LINE
  5
A9
100
AcDbEntity
  8
A-WALL-SHKE
100
AcDbLine
 10
24.5625
 20
4.5
 30
0.0
 11
24.5625
 21
0.0
 31
0.0
  0
LINE
  5
AA
100
AcDbEntity
  8
A-WALL-SHKE
100
AcDbLine
 10
24.75
 20
4.5
 30
0.0
 11
24.75
 21
0.0
 31
0.0
  0
LINE
  5
AB
100
AcDbEntity
  8
A-WALL-SHKE
100
AcDbLine
 10
33.75
 20
4.5
 30
0.0
 11
33.75
 21
0.0
 31
0.0
  0
LINE
  5
AC
100
AcDbEntity
  8
A-WALL-SHKE
100
AcDbLine
 10
33.9375
 20
4.5
 30
0.0
 11
33.9375
 21
0.0
 31
0.0
  0
LINE
  5
AD
100
AcDbEntity
  8
A-WALL-SHKE
100
AcDbLine
 10
37.9375
 20
4.5
 30
0.0
 11
37.9375
 21
0.0
 31
0.0
  0
LINE
  5
AE
100
AcDbEntity
  8
A-WALL-SHKE
100
AcDbLine
 10
38.125
 20
4.5
 30
0.0
 11
38.125
 21
0.0
 31
0.0
  0
LINE
  5
AF
100
AcDbEntity
  8
A-WALL-SHKE
100
AcDbLine
 10
44.125
 20
4.5
 30
0.0
 11
44.125
 21
0.0
 31
0.0
  0
LINE
  5
B0
100
AcDbEntity
  8
A-WALL-SHKE
100
AcDbLine
 10
44.3125
 20
4.5
 30
0.0
 11
44.3125
 21
0.0
 31
0.0
  0
LINE
  5
B3
100
AcDbEntity
  8
A-WALL-SHKE
100
AcDbLine
 10
58.5
 20
4.5
 30
0.0
 11
58.5
 21
0.0
 31
0.0
  0
LINE
  5
B4
100
AcDbEntity
  8
A-WALL-SHKE
100
AcDbLine
 10
58.6875
 20
4.5
 30
0.0
 11
58.6875
 21
0.0
 31
0.0
  0
LINE
  5
B5
100
AcDbEntity
  8
A-WALL-SHKE
100
AcDbLine
 10
65.6875
 20
4.5
 30
0.0
 11
65.6875
 21
0.0
 31
0.0
  0
LINE
  5
B6
100
AcDbEntity
  8
A-WALL-SHKE
100
AcDbLine
 10
65.875
 20
4.5
 30
0.0
 11
65.875
 21
0.0
 31
0.0
  0
LINE
  5
B7
100
AcDbEntity
  8
A-WALL-SHKE
100
AcDbLine
 10
70.875
 20
4.5
 30
0.0
 11
70.875
 21
0.0
 31
0.0
  0
LINE
  5
B8
100
AcDbEntity
  8
A-WALL-SHKE
100
AcDbLine
 10
71.0625
 20
4.5
 30
0.0
 11
71.0625
 21
0.0
 31
0.0
  0
LINE
  5
B9
100
AcDbEntity
  8
A-WALL-SHKE
100
AcDbLine
 10
80.0625
 20
4.5
 30
0.0
 11
80.0625
 21
0.0
 31
0.0
  0
LINE
  5
BA
100
AcDbEntity
  8
A-WALL-SHKE
100
AcDbLine
 10
80.25
 20
4.5
 30
0.0
 11
80.25
 21
0.0
 31
0.0
  0
LINE
  5
BC
100
AcDbEntity
  8
A-WALL-SHKE
100
AcDbLine
 10
85.25
 20
4.5
 30
0.0
 11
85.25
 21
0.0
 31
0.0
  0
LINE
  5
BD
100
AcDbEntity
  8
A-WALL-SHKE
100
AcDbLine
 10
85.4375
 20
4.5
 30
0.0
 11
85.4375
 21
0.0
 31
0.0
  0
LINE
  5
BE
100
AcDbEntity
  8
A-WALL-SHKE
100
AcDbLine
 10
48.3125
 20
4.5
 30
0.0
 11
48.3125
 21
0.0
 31
0.0
  0
LINE
  5
BF
100
AcDbEntity
  8
A-WALL-SHKE
100
AcDbLine
 10
48.5
 20
4.5
 30
0.0
 11
48.5
 21
0.0
 31
0.0
  0
INSERT
  5
D0
100
AcDbEntity
  8
0
100
AcDbBlockReference
  2
NEWCOLOR
 10
0.0
 20
0.0
 30
0.0
  0
ENDSEC
  0
SECTION
  2
OBJECTS
  0
DICTIONARY
  5
1A
100
AcDbDictionary
  3
ACAD_GROUP
350
18
  3
ACAD_MLINESTYLE
350
19
  0
DICTIONARY
  5
18
102
{ACAD_REACTORS
330
1A
102
}
100
AcDbDictionary
  0
DICTIONARY
  5
19
102
{ACAD_REACTORS
330
1A
102
}
100
AcDbDictionary
  3
STANDARD
350
1C
  0
MLINESTYLE
  5
1C
102
{ACAD_REACTORS
330
19
102
}
100
AcDbMlineStyle
  2
STANDARD
 70
     0
  3

 62
     0
 51
90.0
 52
90.0
 71
     2
 49
0.5
 62
   256
  6
BYLAYER
 49
-0.5
 62
   256
  6
BYLAYER
  0
ENDSEC
  0
EOF
